Cifra Club

Shake My Tree

Whitesnake

Tablatura: Principal (guitarra)
Tom: C
This is the opening riff.
-----------------------------------------------------------------------------
-5-0-0-3-0-0-5-0-0-3-0-0------5-0-0-3-0-0-5-0-0-3-0-0-------------0-3-0-3-0-0
-------------------------2-1--------------------------2-1-----1-2------------
-----------------------------------------------------------2-----------------
-----------------------------------------------------------------------------
-----------------------------------------------------------------------------

---------------------
-------0-3-0-3-0-0---
---1-2---------------
-2-------------------  play this riff twice, then play this riff ...
---------------------
---------------------

-------------------------------------------------------------------
-5---3---5---3-------5---3---5---3-------5---3---5---3-------
----------------2-1-----------------2-1-----------------2-1---
---------------------------------------------------------------
---------------------------------------------------------------
----------------------------------------------------------------

----------------------------------------------------------------
-5---3---5---------0-3-0-3-0-0--------0-3-0-3-0-0---------
---------------1-2----------------1-2-------------------
-------------2------------------2-------------------------
-----------------------------------------------------------
-------------------------------------------------------------
reproducciones 27
Acordes para:

    0 comentarios

    mostrar más comentarios

    ¿Conseguiste tocar?

    0 tocaron 0 aún no

    ¡Graba un vídeo tocando Shake My Tree y envianoslo!

    00:00 / 00:00
    outros vídeos desta música
    repetir qualidade Automático
    Outros vídeos desta música
    00:00 / 00:00
    Automático
    OK