Notificações Amigos pendentes

      Whitesnake

      Slide it in

      0 reproducciones
      Tono: G
      Tabbed By:      Kneel-er
      
      - Adapted for playing on a single guitar.
      - Standard EADGBE tuning.
      - Play with medium to high gain.
      
      Intro
      
      |--------------------|
      |--2-3-2---7-8-7-8-7-|
      |--2-2-2---7-7-7-7-7-| x4
      |--2-4-2---7-9-7-9-7-|
      |--------------------|
      |--------------------|
      
      1. -
      2. … Whooo!
      3. -
      4. - 
      (0min15sec)
      
      Verse 1
      
      |--------------------|
      |--2-3-2---7-8-7-8-7-|
      |--2-2-2---7-7-7-7-7-| x4
      |--2-4-2---7-9-7-9-7-|
      |--------------------|
      |--------------------|
      
      1. You talk too much, 
      2. Never saying what’s on your mind. 
      3. It’s written on your face,
      4. An’ in the world you hide behind.
      (0min29sec)
      
      
      |------------------------------|
      |--2-3-2---------7-8-7-8-7-----|
      |--2-2-2---------7-7-7-7-7-----| x3
      |--2-4-2---------7-9-7-9-7-----|
      |--------0-0-0-0-----------0-0-|
      |------------------------------|
      
      1. I know what you want,
      2. I can see what you’re looking for,
      3. I know what you want from me,
      (0min40sec)
      
      
      |------------------------------|
      |--2-3-2---------7-8-7-8-7-----|
      |--2-2-2---------7-7-7-7-7-----| x1
      |--2-4-2---------7-9-7-9-7-----|
      |--------0-0-0-0-----------10\-|
      |--------------------------10\-|
      
      1. Oh Uh and I’m gonna give you more.
      (0min44sec)
      
      Chorus
      
      |--------------|
      |--------------|
      |--------------| x3
      |----7-----7-7-|
      |--5-5-7-7-5-5-|
      |--3---5-5-----|
      
      1. I’m gonna slide it in right to the top,
      2. Slide it in, I ain’t never gonna stop.
      3. Slide it in, right to the top.
      (0min55sec)
      
      
      |--------------------|
      |--------------------|
      |--7-7-7--7-7-7--7-7-| x1
      |--5-5-7--5-5-7--5-5-|
      |--5-5-5--5-5-5--5-5-|
      |--------------------|
      
      1. I’m gonna slide it in, slide it in, slide it …
      (0min59sec)
      
      
      |-------------------------------|
      |--2-3-2---7-8-7-8-7---2-3-2----|
      |--2-2-2---7-7-7-7-7---2-2-2----| x1
      |--2-4-2---7-9-7-9-7---2-4-2----|
      |------------------------------5|
      |------------------------------3|
      
      1. … In baby, Hmmm hmmm hmmm.
      (1min6secs)
      
      Verse 2
      
      |--------------------|
      |--2-3-2---7-8-7-8-7-|
      |--2-2-2---7-7-7-7-7-| x4
      |--2-4-2---7-9-7-9-7-|
      |--------------------|
      |--------------------|
      
      1. Sometimes you seem,
      2. Just like a stranger to me, 
      3. But, all the games you play,
      4. Make it so easy to see.
      (1min21sec)
      
      
      |------------------------------|
      |--2-3-2---------7-8-7-8-7-----|
      |--2-2-2---------7-7-7-7-7-----| x3
      |--2-4-2---------7-9-7-9-7-----|
      |--------0-0-0-0-----------0-0-|
      |------------------------------|
      
      1. You’re looking for love,
      2. Though you try to deny,
      3. The things you put me through,
      (1min32sec)
      
      
      |------------------------------|
      |--2-3-2---------7-8-7-8-7-----|
      |--2-2-2---------7-7-7-7-7-----| x1
      |--2-4-2---------7-9-7-9-7-----|
      |--------0-0-0-0-----------10\-|
      |--------------------------10\-|
      
      1. Tell me what I’ve got to do to you.
      (1min36sec)
      
      Chorus
      
      |--------------|
      |--------------|
      |--------------| x3
      |----7-----7-7-|
      |--5-5-7-7-5-5-|
      |--3---5-5-----|
      
      1. I’m gonna slide it in right to the top,
      2. Slide it in, I ain’t never gonna stop.
      3. Slide it in, right to the top.
      (1min46sec)
      
      
      |-------------------|
      |-------------------|
      |--7-7-7--7-7-7-----| x1
      |--5-5-7--5-5-7--5-7|
      |--5-5-5--5-5-5--3-5|
      |-------------------|
      
      1. I’m gonna slide it in, slide it in … 
      (1min50sec)
      
      Rhythm behind Solo
      
      |--------------------------------------|
      |--------------------------------------|
      |--------------------------------------| x2
      |-----7--9--5-5-7-7-----7--9--5-5-5-7-7|
      |--5--5--7--3-3-5-5--5--5--7--3-3-3-5-5|
      |--3-----------------3-----------------|
      
      
      |---------|
      |---------|
      |---------| x1
      |5-5-5-7-7|
      |3-3-3-5-5|
      |---------| 
      
      (2min21sec)
      
      Verse 3
      
      |--------------------|
      |--2-3-2---7-8-7-8-7-|
      |--2-2-2---7-7-7-7-7-| x2
      |--2-4-2---7-9-7-9-7-|
      |--------------------|
      |--------------------|
      
      1. You talk too much, 
      2. Always treating me so unkind. 
      (2min29sec)
      
      
      |------------------------------|
      |--2-3-2---------7-8-7-8-7-----|
      |--2-2-2---------7-7-7-7-7-----| x1
      |--2-4-2---------7-9-7-9-7-----|
      |--------0-0-0-0-----------0-0-|
      |------------------------------|
      
      1. I know what I’ve got to do,
      (2min32sec)
      
      
      |------------------------------|
      |--2-3-2---------7-8-7-8-7-----|
      |--2-2-2---------7-7-7-7-7-----| x1
      |--2-4-2---------7-9-7-9-7-----|
      |--------0-0-0-0-----------10\-|
      |--------------------------10\-|
      
      1. To get me some peace of mind. 
      (2min36sec)
      
      Chorus / Outro
      
      |--------------|
      |--------------|
      |--------------| x3
      |----7-----7-7-|
      |--5-5-7-7-5-5-|
      |--3---5-5-----|
      
      1. I’m gonna slide it in right to the top,
      2. Slide it in, I ain’t never gonna stop.
      3. Slide it in, right to the top.
      (2min46sec)
      
      
      |--------------------|
      |--------------------|
      |--7-7-7--7-7-7--7-7-| x1
      |--5-5-7--5-5-7--5-5-|
      |--5-5-5--5-5-5--5-5-|
      |--------------------|
      
      1. I’m gonna slide it in, slide it in, slide it …
      (2min50sec)
      
      
      |------------|
      |------------|
      |------------| x1
      |--7-----7-7-|
      |--5-7-7-5-5-|
      |----5-5-----|
      
      1. … in, right to the top
      (2min53sec)
      
      
      |--------------|
      |--------------|
      |--------------| x2
      |----7-----7-7-|
      |--5-5-7-7-5-5-|
      |--3---5-5-----|
      
      1. Slide it in, I ain’t never gonna stop,
      2. Slide it in, right to the top
      (3min0sec)
      
      
      
      
      
      
      |--------------------|
      |--------------------|
      |--7-7-7--7-7-7--7-7-| x1
      |--5-5-7--5-5-7--5-5-|
      |--5-5-5--5-5-5--5-5-|
      |--------------------|
      
      1. I’m gonna slide it in, slide it in, slide it …
      (3min4sec)
      
      
      |----------------------|
      |----------------------|
      |--7-7-7--7-7-7--5-5-7-| x1
      |--5-5-7--5-5-7--3-5-7-|
      |--5-5-5--5-5-5--3-3-5-|
      |----------------------|
      
      1.  Slide it in, slide it in … Right to the top baby.
      (3min18sec)
      
      
      Rock forever & Enjoy
      © 2006 Kneel-er
      

      Comentarios 0

      140 .
      140 cancelar

      ¿conseguiste tocar?

      covers

      ¡Grave un vídeo tocando Slide it in y envie para nosotros!

      Ex.: http://www.youtube.com/watch?v=0IvSvIwGdwk
      ver cover de otras canciones »
      0:00 / 0:00

      Capitulos

        4 versões de guitarra dificuldad reproducciones contribuición y correción
        4 versões de guitarra eléctrica dificuldad reproducciones contribuición y correción
        4 versões de cavaco dificuldad reproducciones contribuición y correción
        4 versões de teclado dificuldad reproducciones contribuición y correción
        play/pausefechar subir/bajar velocidad
        6ª cuerda E5ª cuerda A4ª cuerda D3ª cuerda G2ª cuerda B1ª cuerda E
          acordes
          publicidad
          cerrar
          ok