Cifra Club

So Many Tears

Whitesnake

Tablatura: Principal (guitarra)
Tom: C

  Solo introdução:
e|------------------------------------------------------------
B|------------------8-----------------------------------------
G|--------------7/9---9p7-7------0h2--5-p2--2-----------------
D|--10-p7--7--------------7----------------------0h2p0--0-----
A|--7---------------------9-----------------------------------
E|------------------------------------------------------------

e|-------------------------------------------------10/12-------------
B|------------------8-------------------10h13p10-------------13-p10--
G|--------------7/9---9p7-7------7/9h12------------------------------
D|--10-p7--7--------------7------------------------------------------
A|--7---------------------9------------------------------------------
E|-------------------------------------------------------------------


Am               C        G
I used to be the man for you
Am                   C        G
Did everything you wanted me to,
Am                 C
So, tell me, baby,
         G     Am         C G
What did I go wrong...

Am                    C        G
I told you what you wanted to know,
Am                      C      G
Precious secrets never spoken before...
Am               C
All I'm asking,
          G     Am        C   G
Where did I go wrong...
F
                C           G       F
Some things are better left unsaid
           C           G
But, all I do is cry instead,
            Am              F
Now, I've cried me a river,
                      G
Thinking how it used to be...

              C        F     C
There've been too many tears falling,
                   C          F
And there've been too many hearts
  C
Breaking in two...
G               Am             Dm
Remember what we had together,
                    F      G
Believing it would last forever...
Am                            C
So, won't you tell me, baby.
          G     Am
Where did I do wrong...
C  G
Am           C        G
Everything I had was yours,
Am                   C      G
More than I have ever given before.
Am                     C
So, won't you tell me
       G         Am
Did I hurt you so bad...
C  G
Humm
F
 
            C         G       F
I guess I'm fooling myself,
              C               G
'Cause I want you and no one else...
      Am
And I can't understand
              F         G
Why you're doing these things to me...

               C         F     C
There've been too many tears falling,
                   C          F
And there've been too many hearts
   C
Breaking in two...
G              Am              Dm
Remember what we had together,
                    F     G
Believing it would last forever...
Am                           C
So, won't you tell me, baby,
          G     Am
Where did I go wrong
C G   Am   C
        G      Am
Where did I go wrong
C  G         Am                            C
       Baby, baby....won't  you tell me...
        G           Am    C
Don't leave me this way
          G     Am     C
Where did I go wrong
          G              Am
Where did I go......... wrong
--------------------------------------------------------------------------------

Acordes
Mostrar acordes para teclado 



Am      
      
      
      
      
      
  
C      
      
      
      
      
      
  
Dm      
      
      
      
      
      
  
F      
      
      
      
      
      
  
G      
      
      
      
      
      
  


--------------------------------------------------------------------------------
reproducciones 86
Acordes para:
    Composição: David Coverdale Colaboración y revision:
    • mauro montenegro

    0 comentarios

    mostrar más comentarios

    ¿Conseguiste tocar?

    0 tocaron 0 aún no

    ¡Graba un vídeo tocando So Many Tears y envianoslo!

    00:00 / 00:00
    outros vídeos desta música
    repetir qualidade Automático
    Outros vídeos desta música
    00:00 / 00:00
    Automático
    OK