Cifra Club

The Deeper Love

Whitesnake

Tab de bajo: Principal
Já pensou em usar uma coleção de roupas do Cifra Club? Responda as perguntas abaixo e nos ajude nessa missão! →
|-----------|----------|----------|----------|----------|----------|----------|----------|
|*----------|----------|----------|----------|----------|----------|----------|----------|
|*----------|----------|----------|----------|----------|----------|----------|----------|
|--55555555-|-55555550-|-22222222-|-22222220-|-55555555-|-55555550-|-22222222-|-22222222-|

|----------|----------|----------|----------|----------|----------|----------|----------|
|----------|----------|----------|----------|----------|----------|----------|----------|
|----------|----------|----------|----------|--------3-|-55555555-|----------|----------|
|-00000003-|-55555555-|-55555550-|-22222222-|-0000000--|----------|-55555550-|-22222222-|

|----------|----------|----------|----------|----------|----------|----------|-----------|
|----------|----------|----------|----------|----------|----------|----------|----------*|
|----------|----------|----------|-22222222-|-44444444-|-55555555-|----------|----------*|
|-00000003-|-44444444-|-55555555-|----------|----------|----------|-00000000-|-00000000--|

|----------|----------|----------|----------|----------|----------|----------|----------|
|----------|----------|----------|----------|----------|----------|----------|----------|
|----------|----------|----------|----------|----------|----------|----------|----------|
|-55555555-|-55555550-|-22222222-|-22222220-|-55555555-|-55555550-|-22222222-|-22222222-|

|--------|-------------|--------|-------------|--------|-------------|
|--------|-------------|--------|-------------|--------|-------------|
|-7--7--\|-5--5-----05-|-7--7--\|-5--5-554-20-|-7--7--\|-5--5-----01-|
|--------|------223----|--------|-------------|--------|------223----|
  1 2+     1 2+ 3e+ 4+   1 2+     1 2+ 3e+ 4+   1 2+     1 2+ 3e+ 4+

|----------|----------|----------|----------|----------|
|----------|----------|----------|----------|----------|
|-22222222-|-44444444-|-55555555-|----------|----------|
|----------|----------|----------|-00-00-12\|-00000000-|
                                   1+ +3 4

|-----------|----------|----------|-------(3x)|
|*----------|----------|----------|----------*|
|*----------|----------|----------|--0-------*|
|--55555555-|-55555550-|-22222222-|-4-422024--|
                                    1+2+3+4+

|----------|----------|----------|----------|--------9--|
|----------|----------|----------|----------|------79-7-|
|-22222222-|-44444444-|-55555555-|----------|-----------|
|----------|----------|----------|-00000000-|-00000-----|
                                              1+2+3+e4+

|----------|----------|----------|----------|----------|----------|----------|----------|
|----------|----------|----------|----------|----------|----------|----------|----------|
|----------|----------|----------|----------|----------|----------|----------|--0-------|
|-55555553-|-55555550-|-22222222-|-22222220-|-55555555-|-55555550-|-22222222-|-4-422024-|

|----------|----------|----------|-----------|----------|----------|----------|----------|
|----------|----------|----------|-----------|----------|----------|----------|----------|
|----------|----------|----------|-----------|----------|----------|----------|--0-------|
|-55555555-|-55555550-|-22222222-|-222222222-|-55555555-|-55555550-|-22222222-|-4-422024-|
                                   1+2+3+4e+

|----------|----------|----------|-----------|-----------|----------|----------|-----------|
|----------|----------|----------|-----------|*----------|----------|----------|----------*|
|----------|----------|----------|-----------|*----------|----------|----------|--0-------*|
|-55555555-|-55555550-|-22222222-|-222222222-|--55555555-|-55555550-|-22222222-|-4-422024--|
                                   1+2+3+4e+
105 reproducciones

0 comentarios

Ver todos os comentários

¿Conseguiste tocar?

0 Tocaram 0 Ainda não

Grave um vídeo tocando The Deeper Love e nos envie!

00:00 / 00:00
outros vídeos desta música
repetir qualidade Automático
Outros vídeos desta música
00:00 / 00:00
Automático
OK