Cifra Club

Waiting on You

Whitesnake

Tablatura: Principal (guitarra)
Tom: F
Heavy Echoplex:
Intro
e------------------------------------------------------------------------
b------------------------------------------------------------------------
g--/12-10-/5-0-3h5p3p0-3p0-0--/12-10-/5-0-3h5p3p0-3p0-0-3p0-0-3-5-3h5p3p0
d--/12-10-/5-0-3h5p3p0-3p0-0--/12-10-/5-0-3h5p3p0-3p0-0-3p0-0-3-5-3h5p3p0
a------------------------------------------------------------------------
E------------------------------------------------------------------------

Vocals part, w/whammy pedal, *put lots of vibrato on these chords to approx.
e------------------------------------------------------------------------
b--3\--0--3*--3\---0---5*------------------------------------------------
g--3\--0--3*--3\---0---5*---3p0-0-0---3p0-0-3-5-3h5p3p0------------------
d--3\--0--3*--3\---0---5*---3p0-0-0---3p0-0-3-5-3h5p3p0------------------
a------------------------------------------------------------------------
E------------------------------------------------------------------------


Chorus:
e--------------------------------------------------------------------------
b--8-8/10-10/12--8--8/10--7---8--8/10-10/12--------------------------------
g--8-8/10-10/12--8--8/10--7---8--8/10-10/12---15-15-12-12-15-12-15-12-12-12
d--8-8/10-10/12--8--8/10--7---8--8/10-10/12---15-15-12-12-15-12-15-12-12-12
a--6-6/-8--8/10--6--6/-8--5---6--6/-8--8/10--------------------------------
E--------------------------------------------------------------------------
reproducciones 27
Acordes para:

    0 comentarios

    mostrar más comentarios

    ¿Conseguiste tocar?

    0 tocaron 0 aún no

    ¡Graba un vídeo tocando Waiting on You y envianoslo!

    00:00 / 00:00
    outros vídeos desta música
    repetir qualidade Automático
    Outros vídeos desta música
    00:00 / 00:00
    Automático
    OK