Cifra Club

Aprenda

Whisper a Prayer for the Dying

Whitesnake

Tablatura: Principal (guitarra)
tono: C
  Note the dropped D tuning

Fig. 1
E-|-------------------------------------------------------|
B-|-------------------------------------------------------|
G-|-------------------------------------------------------|
D-|-----0-----0-----0-----0-------------0-----0-----------|
A-|---0-----0-----0-----0-----0---0---0-----0-------------|
D-|-0-----2-----3-----5-----3---2---3-----2-----0---------|

Fig. 2
E-|-----------------------------------------------------------------|
B-|-----------------------------------------------------------------|
G-|-----------------------------------------------------------------|
D-|-3-5-5-5-5---3-5-5-5-5---------3-5-5-5-5---3-5-5-5-5s0-----------|
A-|-3-5-5-5-5---3-5-5-5-5---------3-5-5-5-5---3-5-5-5-5s0-----------|
D-|-3-5-5-5-5---3-5-5-5-5---------3-5-5-5-5---3-5-5-5-5s0-----------|

Fig. 3
E-|--------------------------------------------------|
B-|--------------------------------------------------|
G-|--------------------------------------------------|
D-|--------------------------------------------------|
A-|-0----2-3-0-2-3-0----2-3-0-2-3-0-2-3-2-3-0--------|
D-|-0----2-3-0-2-3-0----2-3-0-2-3-0-2-3-2-3-0--------|

Fig. 4
E-|-2--0--0--3---|----2--0--0-------|
B-|-3--2--1--0---|----3--2--1-------|
G-|-2--2--0--0---|----2--2--0-------|
D-|-0--2--2--0---|----0--2--2-------|
A-|-0--0--3--2---|----0--0--3-------|
D-|--------------|------------------|
33 reproducciones
    • ½ Tono
    • A
    • Bb
    • B
    • C
    • Db
    • D
    • Eb
    • E
    • F
    • F#
    • G
    • Ab
  • Adicionar à lista

    0 comentarios

    Ver todos os comentários

    ¿Conseguiste tocar?

    1 Tocaram 0 Ainda não

    Grave um vídeo tocando Whisper a Prayer for the Dying e nos envie!

    00:00 / 00:00
    outros vídeos desta música
    repetir qualidade Automático
    Outros vídeos desta música
    00:00 / 00:00
    Automático
    OK