Cifra Club

Aprenda

Would I Lie To You

Whitesnake

Tablatura: Principal (guitarra)
tono: D
* * Repeat Once Unless Stated 
 
 
   Main Riff                           (           x4) 
E||-------------|-------------|--------|-------------| 
B||*-----------*|*-----------*|--------|*-----------*| 
G||---4-4-2-4---|-------------|--9--7--|---4-4-2-4---| 
D||---4-4-2-4---|---4-4-2-4---|--9--7--|---4-4-2-4---| 
A||*--2-2-0-2--*|*--4-4-2-4--*|--7--5--|*--2-2-0-2--*| 
E||-------------|---2-2-0-2---|--------|-------------| 
 
 
E||-------------|----------------------------| 
B||*-----------*|----------------------------| 
G||-------------|--4-4-2-4---9--7---4-4-2-4--| 
D||---4-4-2-4---|--4-4-2-4---9--7---4-4-2-4--| 
A||*--4-4-2-4--*|--2-2-0-2---7--5---2-2-0-2--| 
E||---2-2-0-2---|----------------------------| 
 
   Chorus 
E||-----------------------------------------------------| 
B||-----------------------------------------------------| 
G||--2-2-2--4-4-4-4-4-------------4-4-4-4-4-------------| 
D||--2-2-2--4-4-4-4-4--4-4-4-4-4--4-4-4-4-4--4-4-4-4-4--| 
A||--0-0-0--2-2-2-2-2--4-4-4-4-4--2-2-2-2-2--4-4-4-4-4--| 
E||--------------------2-2-2-2-2-------------2-2-2-2-2--| 
 
   Chorus Continued                          (           x3) 
E||------------------------------------------|-------------|-----| 
B||------------------------------------------|*-----------*|-----| 
G||--2-2-2--4-4-4-4-4-------------4-4-4-4-4--|---7-7-7-2---|--4--| 
D||--2-2-2--4-4-4-4-4--4-4-4-4-4--4-4-4-4-4--|---7-7-7-2---|--4--| 
A||--0-0-0--2-2-2-2-2--4-4-4-4-4--2-2-2-2-2--|*--5-5-5-0--*|--2--| 
E||--------------------2-2-2-2-2-------------|-------------|-----| 
 
Repeat All 
 
Can't Figure Out Next Bit 
 
Chorus x2
Composição de Bernie Marsden / David Coverdale / Micky Moody
Colaboración y revision:
  • Ludmilla Correa
42 reproducciones
    • ½ Tono
    • A
    • Bb
    • B
    • C
    • Db
    • D
    • Eb
    • E
    • F
    • F#
    • G
    • Ab
  • Adicionar à lista

    0 comentarios

    Ver todos os comentários

    ¿Conseguiste tocar?

    0 Tocaram 0 Ainda não

    Grave um vídeo tocando Would I Lie To You e nos envie!

    00:00 / 00:00
    outros vídeos desta música
    repetir qualidade Automático
    Outros vídeos desta música
    00:00 / 00:00
    Automático
    OK