Cifra Club

I have Nothing

Whitney Houston

Tab de bajo: Principal
[Intro]

G|--------------------------------------------|
D|--------------------------------------------|
A|--------------------------------------------|
E|-5-5----------------------------------------|
B|------3-3-----------------------------------|

[Pré-Refrão]

I don't really need to look...
G|--------------------------------------------|
D|---------------------------5----------------|
A|--------------7-5--------5---5-7------------|
E|-x-x-5--7--0-------5--7---------------------|
B|--------------------------------------------|

G|--------------------------------------------|
D|--------------------------------------------|
A|-------------------2-3-5--3-----------------|
E|-5--5-7--5-7-8--5---------------------------|
B|----------------------------3---------------|

[Refrão]

G|--------------------------------------------|
D|--------------------5-----------------------|
A|----6-5-3--3-5------------------------------|
E|----------------0-3----1-1------------------|
B|-4------------------------------------------|

G|--------------------------------------------|
D|--------------------------------------------|
A|----6-5----3--------------------------------|
E|----------------0-2-3--1-1------------------|
B|-4------1----3------------------------------|

G|--------------------------------------------|
D|--------------------------------------------|
A|--------------------------------------------|
E|---------3-1-------------1-1----------------|
B|-1--1-3------3-4-4--3-3---------------------|

[Ponte]

G|--------------------------------------------|
D|--------------------------------------------|
A|--------------5-3---------------------------|
E|---0-1------------5-------------------------|
B|-3------4--3--------------------------------|

[Segunda Parte]

G|---------------------------------------------|
D|---------------------------------------------|
A|---------10-9-7---------5-7-5----3------5-3-2|
E|-3--3-3----------0-x-0-----------------------|
B|------------------------------1----1-1-------|

   T
G|--------------------------------------------|
D|--------------------------------------------|
A|-2h3----5-----------------------------------|
E|-----5--------------------------------------|
B|--------------------------------------------|
   
G|--------------------------------------------|
D|-----------5-4------------------------------|
A|---------------5---7--5h..------------------|
E|-3--3-0-3--------7---------0-0-0-2----------|
B|--------------------------------------------|
 
                  T
G|--------------------------------------------|
D|--------------------------------------------|
A|----3----5-3-2--2h3----5--------------------|
E|--------------------5-----------------------|
B|-1----1-------------------------------------|

[Pré-Refrão 2]   
               
I don't Really To Look...
G|--------------------------------------------|
D|--------------------------------------------|
A|---------7-5-----------7-7------------------|
E|-5--5-7------7-5--5-7------0----------------|
B|--------------------------------------------|

G|---------------------------------------------------|
D|---------------------------------------------------|
A|------------------------2-3------------------------|
E|-5--5-7--5-7-8-3-0----5----------------------------|
B|-------------------1--------3-3--3-3--3-3--3-3--3-3|

[Refrão]

G|--------------------------------------------|
D|--------------------------------------------|
A|--------------------------------------------|
E|----------------0-0-3--1-x-1----------------|
B|-4--4p3-1--1-3------------------------------|

G|--------------------------------------------|
D|--------------------------------------------|
A|--------------------------------------------|
E|----------------0-2-3-3-3-2-2---------------|
B|-4--4-3-1--1-3------------------------------|

G|--------------------------------------------|
D|-----------5-3-3----------------------------|
A|----3------------3h5------------------------|
E|-------------------------------1-1----------|
B|-1----1-3------------4-4--3-3---------------|

[Refrão 2]

G|--------------------------------------------|
D|--------------------------------------------|
A|---------------------------------7-6-4------|
E|----------------1/4-4-4-2--2----------------|
B|-5--5p4-2--2-4----------------5---------2--4|

G|-----------------------------------------------|
D|-----------------------------------------------|
A|----------------------------------------4------|
E|-1h3-2h3-4-4-4-2-2----------2-4-0-2-------4----|
B|--------------------1--1-3-----------2------2-4|

G|--------------------------------------------|
D|--------------------------------------------|
A|-4-5-6--------------------------------------|
E|---------------------------------2-2--------|
B|--------2--2-3-4--2-4--5-5--4-4-------------|

[Final]

G|--------------------------------------------|
D|--------------------------------------------|
A|--------------------------------------------|
E|--------------------------------------------|
B|-0------------------------------------------|
00:00 / 00:00
Otros videos de esta canción
Repetir
Otros videos de esta canción
Composición de David Foster / Linda Thompson-Jenner
Colaboración y revisión:
  • Benjamim C.S
4 vistas

0 comentarios

Ver todos los comentarios

¿Lograste tocar?

0 Tocaron 0 Aún no

¡Graba un video tocando I have Nothing y envíanoslo!

00:00 / 00:00
OK