Cifra Club

Million Dollar Bill

Whitney Houston

Tab de bajo: Principal
[Intro]

G|------------------------------------------|
D|------------------------------------------|
A|-10--9-----9----10--9--7--10-9-7----------|
E|--------7---------------------------------|
B|------------------------------------------|

G|------------------------------------------|
D|------------------------------------------|
A|-10--9-----9----10--9--7--10-9-7----------|
E|--------7---------------------------------|
B|------------------------------------------|

G|------------------------------------------|
D|------------------------------------------|
A|-10--9-----9----10-10-10------------------|
E|--------7----------------9----------------|
B|----------------------------8-8-8-7-------|

[Primeira Parte]

G|------------------------------------------|
D|------------------------------------------|
A|-------------------------2--2-x-2---------|
E|-3--3-3--3-3--3-3--3--2-------------------|
B|----------------------------------5-5-5-3-|

G|------------------------------------------|
D|------------------------------------------|
A|----------------------2--2-x-2------------|
E|-3-3--3-3--3-3--3--2-----------5-5-5------|
B|------------------------------------------|

[Pré-Refrão]

G|------------------------------------------|
D|------------------------------------------|
A|------------2---0--------------2--0-------|
E|-0--0-0--2--------0--0-0--2--2------0--0-0|
B|------------------------------------------|

G|------------------------------------------------|
D|------------------------------------------------|
A|------2-----------------------------------------|
E|-2--2----4-4-4-4-4-4-4-4-4-4-4-4-4-4-4--4-4-4--4|
B|------------------------------------------------|

[Refrão]

G|------------------------------------------|
D|------------------------------------------|
A|------------------2-----2--0--------------|
E|-3--3--0-3--3--2-----2--------------------|
B|------------------------------------------|

G|------------------------------------------|
D|------------------------------------------|
A|---------------------2--------2--2-0------|
E|-3--3--3-3-3-3--3-2-----2-2-2-------------|
B|------------------------------------------|

[Segunda Parte]

G|------------------------------------------|
D|------------------------------------------|
A|-------------------------2--2-x-2---------|
E|-3--3-3--3-3--3-3--3--2-------------------|
B|----------------------------------5-5-5-3-|

G|------------------------------------------|
D|------------------------------------------|
A|----------------------2--2-x-2------------|
E|-3-3--3-3--3-3--3--2-----------5-5-5------|
B|------------------------------------------|

[Pré-Refrão 2]

G|------------------------------------------|
D|------------------------------------------|
A|------------2---0--------------2--0-------|
E|-0--0-0--2--------0--0-0--2--2------0--0-0|
B|------------------------------------------|

G|------------------------------------------------|
D|------------------------------------------------|
A|------2-----------------------------------------|
E|-2--2----4-4-4-4-4-4-4-4-4-4-4-4-4-4-4--4-4-4--4|
B|------------------------------------------------|

[Refrão - 2x]

G|------------------------------------------|
D|------------------------------------------|
A|------------------2-----2--0--------------|
E|-3--3--0-3--3--2-----2--------------------|
B|------------------------------------------|
                                                 
G|------------------------------------------|
D|------------------------------------------|
A|---------------------2--------2--2-0------|
E|-3--3--3-3-3-3--3-2-----2-2-2-------------|
B|------------------------------------------|

[Pós-Refrão] 

G|------------------------------------------|
D|------------------------------------------|
A|-------------------------2----------------|
E|-3--3-3--3-3--3-3--3--2-------------------|
B|------------------------------------------|

[Refrão - 2x]

G|------------------------------------------|
D|------------------------------------------|
A|------------------2-----2--0--------------|
E|-3--3--0-3--3--2-----2--------------------|
B|------------------------------------------|
                                               
G|------------------------------------------|
D|------------------------------------------|
A|---------------------2--------2--2-0------|
E|-3--3--3-3-3-3--3-2-----2-2-2-------------|
B|------------------------------------------|

[Final]

G|------------------------------------------|
D|------------------------------------------|
A|------------------2-----2--0--------------|
E|-3--3--0-3--3--2-----2--------------------|
B|------------------------------------------|

G|------------------------------------------|
D|------------------------------------------|
A|---------------------2--------2--2-0------|
E|-3--3--3-3-3-3--3-2-----2-2-2-------------|
B|------------------------------------------|
00:00 / 00:00
Otros videos de esta canción
Repetir
Otros videos de esta canción
Composición de Alicia Keys / Kaseem Dean / Norman Harris
Colaboración y revisión:
  • Benjamim C.S
3 vistas

0 comentarios

Ver todos los comentarios

¿Lograste tocar?

0 Tocaron 0 Aún no

¡Graba un video tocando Million Dollar Bill y envíanoslo!

00:00 / 00:00
OK