Cifra Club

We Dont Suck Anymore Much

Wildebeests

Tab de bajo: Principal
tabbed by: joel chandler M*

heres anouther funkey fresh bass line from the wildebeest

after guitar intro come in with drums on this


G:-------------------------------------------
D:--------------5-------7---7--------------
A:------5----3------5----------7/1-----1-
E:---3---------------------------------------


thats the verse part, then for the chorus you do this sweet little number

G:--------------------------------------
D:-----------2-------------------------
A:--3---7------------------------------
E:------------------4--1--1--2---2---

well thats all for this one, check in later for more schweet wildebeest bass 
lines
00:00 / 00:00
Otros videos de esta canción
Repetir
Otros videos de esta canción
Compositor no encontrado.
8 vistas

0 comentarios

Ver todos los comentarios

¿Lograste tocar?

0 Tocaron 0 Aún no

¡Graba un video tocando We Dont Suck Anymore Much y envíanoslo!

00:00 / 00:00
OK