Cifra Club

Mi Valentin

William Luna

Chords: Principal (acoustic and electric guitars)
tone: D
Intro: Acordes y punteo a la vez

      D               F#m           G                 A
E|------2---2-2-2-0---------------------------------------|
B|----3-------------3-2------3-2-3-5-3----3-3-3-2-0-2-----|
G|--2-------------------3-----------------------------3---| (2x)
D|--------------------------------------------------------|
A|--------------------------------------------------------|
E|--------------------------------------------------------|

      G                         A       F#m           Bm 
E|--------------------------------------------------------|
B|----0-3---0-3---0-3---0-3---0-5----5-3-2-----2-3-5-3----|
G|--0-----0-----0-----0-----0--------------------------4--| (2x)
D|--------------------------------------------------------|
A|--------------------------------------------------------|
E|--------------------------------------------------------|

Estrofa:

         D                       F#m
Como el sol, que hace brillar tu pelo

         G                    A
como la luz, que alumbra tu cara

          D               F#m
como el aroma, a tierra mojada

             G                     A
mientras duermes, posado en tu almohada


Coro:

  G                                          A
Te amare, te amare, te amare, te amare, te amare

  F#m                  Bm
mientras tu, me lo permitas

  G                           A
como son tu risa, que no molesta

  F#m                  Bm
como la luz, que te alumbra

  G                                          A
Te amare, te amare, te amare, te amare, te amare

  F#m                  Bm
mientras tu, me lo permitas

  G                                  A
como el sol, como el sol, que no molesta

  F#m                   Bm
como la luz, que te alumbra


      D               F#m           G                 A
E|------2---2-2-2-0---------------------------------------|
B|----3-------------3-2------3-2-3-5-3----3-3-3-2-0-2-----|
G|--2-------------------3-----------------------------3---| (2x)
D|--------------------------------------------------------|
A|--------------------------------------------------------|
E|--------------------------------------------------------|

      G                         A       F#m           Bm 
E|--------------------------------------------------------|
B|----0-3---0-3---0-3---0-3---0-5----5-3-2-----2-3-5-3----|
G|--0-----0-----0-----0-----0--------------------------4--| (2x)
D|--------------------------------------------------------|
A|--------------------------------------------------------|
E|--------------------------------------------------------|

Estrofa:

        D                    F#m
Por que se, cuando pasa el tiempo

         G                       A
ya no podre, llevarte en mis brazos

       D             F#m
escuchare, tu voz de Niño

           G                A
diciendo Papá, te quiero mucho


Coro:

  G                                          A
Te amare, te amare, te amare, te amare, te amare

  F#m                  Bm
mientras tu, me lo permitas

  G                           A
como son tu risa, que no molesta

  F#m                  Bm
como la luz, que te alumbra

  G                                          A
Te amare, te amare, te amare, te amare, te amare

  F#m                  Bm
mientras tu, me lo permitas

  G                                  A
como el sol, como el sol, que no molesta

  F#m                   Bm
como la luz, que te alumbra


 G       A         F#m    Bm    G     A           F#m   Bm
Por que eres mi Valentín,                 parte de mi...

 G       A         F#m    Bm    G     A           F#m   Bm
             mi Valentin,                 parte de mi...

 G       A         F#m    Bm    G     A           F#m   Bm
             mi Valentin,                 parte de mi...

 G       A         F#m    Bm    G     A           F#m   Bm
             mi Valentin,                 parte de mi...

 G       A         F#m    Bm    G     A           F#m   Bm
             mi Valentin,                 parte de mi...

 G       A         F#m    Bm    G     A           F#m   Bm
             mi Valentin,                 parte de mi...

 G       A         F#m    Bm    G     A           F#m   Bm
             mi Valentin,                 parte de mi...
00:00 / 00:00
Other videos of this song
Repeat
Other videos of this song
522 views
    • ½ Tone
    • A
    • Bb
    • B
    • C
    • Db
    • D
    • Eb
    • E
    • F
    • F#
    • G
    • Ab
  • Add to list

Afinação da cifra

Afinador online

    00:00 / 00:00
    OK