Cifra Club

Vienes y te vas

William Luna

Chords: Principal (acoustic and electric guitars)
tone: C
Intro:
   C                              Am 
E|-3/0------3/0------3/0---------------------------------|
B|-------3--------3-------3-3-3---------0---0-0/1--1-1-1-|
G|--------------------------------2---2---2--------------|
D|-----2--------2-------------------2--------------------|
A|-3--------3--------3----3-3-3---0----------------0-0-0-|
E|-------------------------------------------------------|
   C                              Am 
E|-3/0------3/0------3/0---------------------------------|
B|-------3--------3-------3-3-3---------0---0-0/1--1-1-1-|
G|--------------------------------2---2---2--------------|
D|-----2--------2-------------------2--------------------|
A|-3--------3--------3----3-3-3---0----------------0-0-0-|
E|-------------------------------------------------------|
   F                     Em 
E|------------------------0---------|
B|-------1-1--------1-1---0---------|
G|-----2----------2-------0---2--0--|
D|---3----------3---------2---------|
A|-3----------3-----------2---2--2--|
E|------------------------0---------|
   F                     Em 
E|------------------------0---------|
B|-------1-1--------1-1---0---------|
G|-----2----------2-------0---2--0--|
D|---3----------3---------2---------|
A|-3----------3-----------2---2--2--|
E|------------------------0---------|

Se repite el intro, pero hay una variacion en la 3ra estrofa:

   C                              Am 
E|-3/0------3/0------3/0---------------------------------|
B|-------3--------3-------3-3-3---------0---0-0/1--1-1-1-|
G|--------------------------------2---2---2--------------|
D|-----2--------2-------------------2--------------------|
A|-3--------3--------3----3-3-3---0----------------0-0-0-|
E|-------------------------------------------------------|
   C                              Am 
E|-3/0------3/0------3/0---------------------------------|
B|-------3--------3-------3-3-3---------0---0-0/1--1-1-1-|
G|--------------------------------2---2---2--------------|
D|-----2--------2-------------------2--------------------|
A|-3--------3--------3----3-3-3---0----------------0-0-0-|
E|-------------------------------------------------------|
   F                     Em 
E|------------------------0--0-3-0----------------|
B|-------1-1--------1-1---0--------3-0-0-------0--|
G|-----2----------2-------0--------------2-0-2----|
D|---3----------3---------2-----------------------|
A|-3----------3-----------2-----------------------|
E|------------------------0-----------------------|
   F                     Em 
E|------------------------0---------|
B|-------1-1--------1-1---0---------|
G|-----2----------2-------0---2--0--|
D|---3----------3---------2---------|
A|-3----------3-----------2---2--2--|
E|------------------------0---------|

C                          Am 
Ay yo no quiero verme  contigo
C                        Am 
no sabes cuanto sufro cariño
F                           (Em )-G  
no se si soy feliz lejos de tiiiiii
F                        G  
o soy feliz estando contigo

C                           Am 
Un día me amas luego me olvidas
C                           Am 
un día me amas luego te olvidas
F                           (Em )-G  
no se si soy feliz lejos de tiiiiii
F                        G  
o soy feliz estando contigo

F                  G#  
Vienes vienes y te vas
F                  G#  
vienes vienes y te vas
F                  G#  
vienes vienes y te vas
F                  G#  
vienes vienes y te vas

Solo:
   C                      Am 
E|---0-0-0-0-3---------------------------------|
B|-3-3-3-3-3-1-3/1-1-3-1-----------------------|
G|-0-----------0-0-0-0-0--2-2-------2--2-2-2---|
D|------------------------2-2-2---2----2-2-2---|
A|------------------------------0--------------|
E|---------------------------------------------|
   C                      Am 
E|---0-0-0-0-3---------------------------------|
B|-3-3-3-3-3-1-3/1-1-3-1-----------------------|
G|-0-----------0-0-0-0-0--2-2-------2--2-2-2---|
D|------------------------2-2-2---2----2-2-2---|
A|------------------------------0--------------|
E|---------------------------------------------|
   F                     Em 
E|------------------------0--0-3-0----------------|
B|-------1-1--------1-1---0--------3-0-0-------0--|
G|-----2----------2-------0--------------2-0-2----|
D|---3----------3---------2-----------------------|
A|-3----------3-----------2-----------------------|
E|------------------------0-----------------------|
   F                     Em 
E|------------------------0---------|
B|-------1-1--------1-1---0---------|
G|-----2----------2-------0---2--0--|
D|---3----------3---------2---------|
A|-3----------3-----------2---2--2--|
E|------------------------0---------|
   C                      Am 
E|---0-0-0-0-3----------------------------------|
B|-3-----------3/1-0-1-0------------------------|
G|------------------------2-2-------2-2--2-2-2--|
D|---2-2-2-2-2----------------2---2-------------|
A|-3-----------3-3-3-3-3--0-0---0--------0-0-0--|
E|----------------------------------------------|
   C                      Am 
E|---0-0-0-0-3----------------------------------|
B|-3-----------3/1-0-1-0------------------------|
G|------------------------2-2-------2-2--2-2-2--|
D|---2-2-2-2-2----------------2---2-------------|
A|-3-----------3-3-3-3-3--0-0---0--------0-0-0--|
E|----------------------------------------------|
   F                     Em 
E|------------------------0--0-3-0----------------|
B|-------1-1--------1-1---0--------3-0-0-------0--|
G|-----2----------2-------0--------------2-0-2----|
D|---3----------3---------2-----------------------|
A|-3----------3-----------2-----------------------|
E|------------------------0-----------------------|
   F                     Em 
E|------------------------0---------|
B|-------1-1--------1-1---0---------|
G|-----2----------2-------0---2--0--|
D|---3----------3---------2---------|
A|-3----------3-----------2---2--2--|
E|------------------------0---------|
00:00 / 00:00
Other videos of this song
Repeat
Other videos of this song
4.259 views
    • ½ Tone
    • A
    • Bb
    • B
    • C
    • Db
    • D
    • Eb
    • E
    • F
    • F#
    • G
    • Ab
  • Add to list

Afinação da cifra

Afinador online

    00:00 / 00:00
    OK