Cifra Club

Blue Eyes Crying In The Rain

Willie Nelson

Tablatura: Principal (guitarra)
Tom: E
Tabbed by: Wade Bennett
E|-mail:*


There's a great mighty 3 chords in this song.

        E    B7    A
    |--0----2-----0--|
    |--0----0-----2--|
    |--1----2-----2--|
    |--2----1-----2--|
    |--2----2-----0--|
    |--0----X-----X--|

              Intro

|------0-0---0-0------0-0---0-0--|
|------0-0---0-0------0-0---0-0--|
|------1-1---1-1------1-1---1-1--|
|------2-2---2-2------2-2---2-2--|
|--0h2------------0h2------------|
|----------0--------------0------|

Picking patterns

               E                                B7

|-----0-0---0-0-----0-0----0-0--||-----2-2---2-2-----2-2----2-2--|
|-----0-0---0-0-----0-0----0-0--||-----0-0---0-0-----0-0----0-0--|
|-----1-1---1-1-----1-1----1-1--||-----2-2---2-2-----2-2----2-2--|
|-----2-2---2-2-----2-2----2-2--||---------1--------------1------|
|---------2--------------2------||--2-------------2--------------|
|--0-------------0--------------||-------------------------------|

                A
|-----0-0---0-0-----0-0----0-0--|
|-----2-2---2-2-----2-2----2-2--|
|-----2-2---2-2-----2-2----2-2--|
|---------2--------------2------|
|--0-------------0--------------|
|-------------------------------|

During A, there's a bend on the 3rd fret
of the b string that is quickly released. It's kind
of like the quick A indicated by ^A, just in a
different spot. It's indicated by ^b3.

 Fill 1     Fill 2     Fill 3       Fill 4
|-------||-----------||-------||---------------|
|-------||-----------||-------||---------------|
|-------||-----------||-------||---------------|
|-------||-----------||-------||---------------|
|--0-1--||-----------||-------||--0h2-2-0------|
|-------||--0-1-2-4--||--4-2--||----------4-2--|E

                                                             ^A/E  (Fill 1)
In the twilight glow, I see
B7                      E
Blue eyes cryin' in the Rain
                       ^A /E  (Fill1)
When we kissed goodbye and parted
  B7                    E     (Fill 2)
I knew we'd never meet a-gain

VERSE 1:
A                         ^b3  (Fill 3)
Love is like a dying ember;
E                 B      (Fill4)
Only memories re- main.
    E                  ^A/E     (Fill 1)
And thru the ages I'll re-member
B                     E   A E
Blue eyes cryin' in the rain.


*~~Solo~~*


VERSE 2:
A                               (Fill 3)
Someday when we meet up yonder,
E                            B    (Fill 4)
We'll stroll hand in hand a- gain.
E                        ^A/E        (Fill1)
And in a land that knows no parting,
B                       E
Blue eyes crying in the rain.

Outro

|-------------------------------------0--|
|--------0-----------2-----------0-------|
|-----------1-----------2-----------1----|
|-----2-----------2-----------2----------|
|--------------0-------------------------|
|--0-----------------------0-------------|


                                *~~Solo~~*

   E                                                   B                  E
|----0-2-2/4--4b5r4---------4b5r4--0---------7----6---5---4--2-----5--7--2-4--|
|--0------------------0-5-----------------9----8----------------0-------------|
|-----------------------------------------------------------------------------|
|-----------------------------------------------------------------------------|
|-----------------------------------------------------------------------------|
|-----------------------------------------------------------------------------|

            E                                            B                    E
|----0-2-2/4--4-4-4b5r4----0-2-4-4b5--4--0-----0-2/4--2-4-2--4p2-2--0--2/4/2-0|
|--0---------------------0------------------0---------------------------------|
|-----------------------------------------------------------------------------|
|-----------------------------------------------------------------------------|
|-----------------------------------------------------------------------------|
|-----------------------------------------------------------------------------|
reproducciones 367
Acordes para:
    Composição: Fred Rose Colaboración y revision:
    • Henrique Escobar

    0 comentarios

    mostrar más comentarios

    ¿Conseguiste tocar?

    1 tocaron 0 aún no

    ¡Graba un vídeo tocando Blue Eyes Crying In The Rain y envianoslo!

    00:00 / 00:00
    outros vídeos desta música
    repetir qualidade Automático
    Outros vídeos desta música
    00:00 / 00:00
    Automático
    OK