Cifra Club

On The Road Again

Willie Nelson

Tablatura: Principal (guitarra)
Tom: E
E                                                   Ab
On the road again , just  cant wait to get on the road again
                     F#m
The life i love is makin' music with my friends
    A              B                 E
And I can't wait to get on the road again

E                                           Ab
On the road again, going places that I've never been
                        F#m
Seein'things that I may never see again
    A               B
And I can't wait to get back on the road again

        A                                                      E
On the road again, like a band of gypsies we go on down the highway
             A                                                E
We're the best of friends insisting that the world be turning our way
     B
And our way

E                                                     Ab
Is on the road again, just can't wait to get on the road again
                      F#m
Well I find love is makin' music with my friends
    A                B                E
And I  can't wait to get on the road again
Solo 2x:
E|--------------------------------------------------------------------------|
B|--------------------------------------------------------------------------|
G|--------11h13--13~------11h13--11--13--13^14^13---11h13p11--11-13~13~13~--|
D|---9-9--------------------------------------------------------------------|
A|--------------------------------------------------------------------------|
E|--------------------------------------------------------------------------|

E|--------------------------------------------------------------------------|
B|--------------------------------------------------------------------------|
G|---11h13--11-13--13^14^13--11h13p11--11-13-11-11/10-11-11h13--13h14-14-14-|
D|--------------------------------------------------------------------------|
A|--------------------------------------------------------------------------|
E|--------------------------------------------------------------------------|

E|--------------------------------------------------------------------------|
B|--------------------------------------------------------------------------|
G|---13--11h13--11-11-8-9~--------------------------------------------------|
D|--------------------------------------------------------------------------|
A|--------------------------------------------------------------------------|
E|--------------------------------------------------------------------------|


        A                                                      E
On the road again, like a band of gypsies we go on down the highway
             A                                                E
We're the best of friends insisting that the world be turning our way
     B
And our way

E                                                     Ab
Is on the road again, just can't wait to get on the road again
                      F#m
Well I find love is makin' music with my friends
    A                B                E
And I  can't wait to get on the road again
A               B                E
I can't wait to get on the road again
E|-----------------------------------------------------------------12-------|
B|-------------------------------------------------------------11--12-------|
G|--13h14-14-14-14p13-13-13-13\11-11-11-11\8---8-8h9----11h13---------------|
D|--------------------------------------------------------------------------|
A|--------------------------------------------------------------------------|
E|--------------------------------------------------------------------------|
reproducciones 1.163
Acordes para:
    Composição: Willie Nelson Colaboración y revision:
    • Marcos Alberto
    • Geraldo Netto
    • Gabriel Pinto

    0 comentarios

    mostrar más comentarios

    ¿Conseguiste tocar?

    7 tocaron 0 aún no

    ¡Graba un vídeo tocando On The Road Again y envianoslo!

    00:00 / 00:00
    outros vídeos desta música
    repetir qualidade Automático
    Outros vídeos desta música
    00:00 / 00:00
    Automático
    OK