Cifra Club

Estoy Enamorado

Wisin Y Yandel

Tablatura: Principal
reproducciones 836
Tono: F
      Gm        C                     F
E|---------------------------------------------------------------
A|---------------------------------------------------------------
D|--6--------3---------------------4-----------------------------
G|---4--------1---------------------3----------------------------
B|----4--------2---------------------2---------------------------
E|-----4--------1---------------------2--------------------------
            Una nueva mañana.......... me levanté…

                           Dm
E|---------------------------------------------------------------
A|---------------------------------------------------------------
D|-----------------------1---------------------------------------
G|------------------------3--------------------------------------
B|-------------------------4-------------------------------------
E|--------------------------1------------------------------------
            Pensando en todas las cosas lindas que hemos hecho.

        Gm                  C
E|---------------------------------------------------------------
A|---------------------------------------------------------------
D|----6------------------3---------------------------------------
G|-----4------------------1--------------------------------------
B|------4------------------2-------------------------------------
E|-------4------------------1------------------------------------
            Pensando en tu olor, tu piel…

         Dm                     Dm
E|---------------------------------------------------------------
A|---------------------------------------------------------------
D|-----1-----------------------1---------------------------------
G|------3-----------------------3--------------------------------
B|-------4-----------------------4-------------------------------
E|--------2-----------------------2------------------------------
              Para mí lo eres todo.

        Gm                             C
E|---------------------------------------------------------------
A|---------------------------------------------------------------
D|---------------------------------------------------------------
G|----8--------------------8--------6----------------------------
B|-------------------------7--------6----------------------------
E|-----7---------------------------------------------------------
       Quisiera estar siempre a tu lado…

                      F            Dm
E|---------------------------------------------------------------
A|---------------------------------------------------------------
D|---------------------------------------------------------------
G|----8----10-------11------------8--6--8--10---11---------------
B|----7----9--------11------------7--6--7--9----11---------------
E|---------------------------------------------------------------
                  Huir de todo mal.

        Gm                  C
E|---------------------------------------------------------------
A|---------------------------------------------------------------
D|---------------------------------------------------------------
G|----8-----------------8--6-------------------------------------
B|----------------------7--6-------------------------------------
E|-----7---------------------------------------------------------
       De tu cuerpo un esclavo…

             Dm                     Dm
E|---------------------------------------------------------------
A|---------------------------------------------------------------
D|---------------------------------------------------------------
G|----8----6-------8---------------------------------------------
B|----7----6-------7---------------7-7---------------------------
E|---------------------------------------------------------------
           Y creo que te he demostrado que…

Gm          C
Estoy enamorado…
      F            Dm
Te lo quiero confesar.
     Gm           Do
Totalmente ilusionado…
               Dm
Me la paso pensándote…
                Dm
Nunca voy a soltarte.

Refrão:
Gm          C
Estoy enamorado…
      F           Dm
Te lo quiero confesar.
     Gm           C
Totalmente ilusionado…
               Dm
Me la paso pensándote…
               Dm
Nunca voy a soltarte.

   Gm
Quería progreso a la calle le dio un receso
   C
Mi voz tenia peso como un corazón preso
     F
Ella me libro de todo mal con tan solo un beso
   Dm
Ha sido un proceso pero el amor ya no da regreso
   Gm
Yo sigo a su lado, su amor es sagrado
   C
Tengo muy claro del amor el significado
     Dm
Ella tiene regaño conmigo ha batallado
  Dm
Vamos soldado nos hemos ayudado.

Refrão:
Gm          C
Estoy enamorado…
      F           Dm
Te lo quiero confesar.
     Gm           C
Totalmente ilusionado…
               Dm
Me la paso pensándote…
               Dm
Nunca voy a soltarte.

Gm          C
Estoy enamorado…
      F           Dm
Te lo quiero confesar.
     Gm           C
Totalmente ilusionado…
               Dm
Me la paso pensándote…
               Dm
Nunca voy a soltarte.

                 Gm
Ella tiene la sustancia de la perseverancia
C
Tengo amor en abundancia
    F
Princesa tu has cambiado mi arrogancia
      Dm
Veinticinco problemas, cuarenta circunstancias

        Gm                                      C
Y yo te quiero decir, que tu cuerpo quiero consumir

Sin disumir, ella me empieza a dirigir
   Dm
Me toca y yo me empiezo a derretir
 Dm
Eres la mujer de mi vida lo tengo que admitir

Gm                          C
Quisiera estar siempre a tu lado…
  F          Dm
Huir de todo mal…
Gm               C
De tu cuerpo un esclavo…
Dm                     Dm
Y creo que te he demostrado que…

Refrão:
Gm          C
Estoy enamorado…
      F           Dm
Te lo quiero confesar.
     Gm           C
Totalmente ilusionado…
               Dm
Me la paso pensándote…
               Dm
Nunca voy a soltarte.

Gm          C
Estoy enamorado…
      F           Dm
Te lo quiero confesar.
     Gm           C
Totalmente ilusionado…
               Dm
Me la paso pensándote…
               Dm
Nunca voy a soltarte.

Gm               C
Evidentemente tiene magia
                         F
Tiene la llave de mi corazón en sus manos
        Dm
Quiénes son? W, Yandel
Gm
Victor 'El Nazi', Nesty
C
El Profesor Gómez, W&Y Records
Dm            Dm
Señora te lo tengo que decir…  Escucha bien…

Gm                          C
Quisiera estar siempre a tu lado…
  F          Dm
Huir de todo mal…
Gm               C
De tu cuerpo un esclavo…
Dm                     Dm
Y creo que te he demostrado que…

Gm          C
Estoy enamorado…
      F           Dm
Te lo quiero confesar.
     Gm           C
Totalmente ilusionado…
               Dm
Me la paso pensándote…
               Dm
Nunca voy a soltarte.
Acordes para:
    Colaboración y revision:
    • Ernesto Alvarez
    • Sergio

    0 comentarios

      mostrar más comentarios

      ¿Conseguiste tocar?

      0tocaron0aún no

      ¡Graba un vídeo tocando Estoy Enamorado y envianoslo!

      00:00 / 00:00
      outros vídeos desta música
      repetirqualidadeautomática
      Outro vídeos desta música
        00:00 / 00:00
        automática
        OK