Cifra Club

All I Need Intro

Within Temptation

Tablatura: Principal (guitarra)
Tom: G#
       Song        |    All I Need     |
       Album     |The Heart Of Everything|


    Intro: Something Like This Not 100% Right
E|--------------------------------------------------------|
B|--------------------------------------------------------|
G|--------------------------------------------------------|
D|-------8-------10--11--10--------8-----11-10--8---------|
A|-----8---8---------------------8---8--------------------|
E|--6-------------------------6---------------------------|

---------------------------------------------------|
---------------------------------------------------|
---------------------------------------------------|
--------6------9--9--8------------6------9-8-6-----|
------6---6---------------------6---6--------------|
---4-------------------------4---------------------| repeat 4 times

After the second time the vocals enter
reproducciones 116
Acordes para:
    Colaboración y revision:
    • Bianca Grego

    0 comentarios

    mostrar más comentarios

    ¿Conseguiste tocar?

    0 tocaron 0 aún no

    ¡Graba un vídeo tocando All I Need Intro y envianoslo!

    00:00 / 00:00
    outros vídeos desta música
    repetir qualidade Automático
    Outros vídeos desta música
    00:00 / 00:00
    Automático
    OK