Cifra Club

Another Day

Within Temptation

Tablatura: Principal (guitarra)
Tom: D
() - palm mute          ^ - bend 1 step         h - hammer on 
{} - little feedback    p - pull off            s - slide 
 
 
Tune to D (D G C F A D) 
 
 
Riff 1 
|-------------------------------------------------------- 
|-------------------------------------------------------- 
|-------------------------------------------------------- 
|------------------------------(7)-(7)-(7)-(7)-(7)-(7)--- 
|--8---5---3-------8---5---3---(5)-(5)-(5)-(5)-(5)-(5)--- 
|--------------3----------------------------------------- 
 
 
Riff 2.0 
|--------------------------------------------------- 
|--------------------------------------------------- 
|--------------------------------------------------- 
|--------------7--7--7--7--------------5--5--5--5--- 
|--5--5--5--5--5--5--5--5--3--3--3--3--3--3--3--3--- 
|--3--3--3--3--------------1--1--1--1--------------- 
| 
|--------------------------------------------------- 
|--------------------------------------------------- 
|--------------------------------------------------- 
|--------------7--7--7--7--10-10-10-10-7--7--5--5--- 
|--5--5--5--5--5--5--5--5--8--8--8--8--5--5--3--3--- 
|--3--3--3--3--------------------------------------- 
 
 
Riff 3 / Interlude (guitars only play the first 2 times) 
|---------------------------------- 
|---------------------------------- 
|---------------------------------- 
|---------------------------------- 
|--7---1---5---3---7---1---5---3--- 
|---------------------------------- 
 
 
Repeat Riff 1 
 
Repeat Riff 2 
 
Riff 4 
Play palm-muted 2 times: 
|----------------------------------------------------------------------------- 
|----------------------------------------------------------------------------- 
|----------------------------------------------------------------------------- 
|----------------------------------------------------------------------------- 
|--(7)(7)(7)(7)(7)(7)(7)(7)(7)(7)(7)(6)(6)(6)(6)(6)(6)(6)(6)(6)(6)(6)(6)(6)--- 
|--(5)(5)(5)(5)(5)(5)(5)(5)(5)(5)(5)(5)(4)(4)(4)(4)(4)(4)(4)(4)(4)(4)(4)(4)--- 
| 
|----------------------------------------------------------------------------- 
|----------------------------------------------------------------------------- 
|----------------------------------------------------------------------------- 
|----------------------------------------------------------------------------- 
|--(5)(5)(5)(5)(5)(5)(5)(5)(5)(5)(5)(5)(8)(8)(8)(8)(8)(8)(8)(8)(8)(8)(8)(8)--- 
|--(3)(3)(3)(3)(3)(3)(3)(3)(3)(3)(3)(3)(6)(6)(6)(6)(6)(6)(6)(6)(6)(6)(6)(6)--- 
| 
Then: 
|--------------------------------------------- 
|--------------------------------------------- 
|--------------------------------------------- 
|--------------------------------------------- 
|--7---(7)(7)(7)6---(6)(6)(6)5---(5)(5)(5)8--- 
|--5---(5)(5)(5)4---(4)(4)(4)3---(3)(3)(3)6--- 
 
 
Riff 5 
|---------------------------------------------------------------------------------------- 
|---------------------------------------------------------------------------------------- 
|---------------------------------------------------------------------------------------- 
|---------------------------------------------------------------------------------------- 
|--7--(7)(7)(7)9--(9)(9)(9)10-(10)(10)(10)10-(10)(10)(10)-------------------------------- 
|--5--(5)(5)(5)7--(7)(7)(7)8--(8)-(8)-(8)-8--(8)-(8)-(8)-5--(5)(5)(5)5---5--(5)(5)(5)5--- 
|--------------------------------------------------------3--(3)(3)(3)3---3--(3)(3)(3)3--- 
 
 
Riff 2.1 
|------------------------------------------------------------- 
|------------------------------------------------------------- 
|------------------------------------------------------------- 
|--------------7--7--7--7--------------5--5--5---------------- 
|--5--5--5--5--5--5--5--5--3--3--3--3--3--3--3--(3)-(5)-(7)--- 
|--3--3--3--3--------------1--1--1--1------------------------- 
| 
|--------------------------------------------------- 
|--------------------------------------------------- 
|--------------------------------------------------- 
|--------------7--7--7--7--10-10-10-10-7--7--5--5--- 
|--5--5--5--5--5--5--5--5--8--8--8--8--5--5--3--3--- 
|--3--3--3--3---------------------------------------
reproducciones 38
Acordes para:
    Colaboración y revision:
    • Hellektra

    0 comentarios

    mostrar más comentarios

    ¿Conseguiste tocar?

    0 tocaron 0 aún no

    ¡Graba un vídeo tocando Another Day y envianoslo!

    00:00 / 00:00
    outros vídeos desta música
    repetir qualidade Automático
    Outros vídeos desta música
    00:00 / 00:00
    Automático
    OK