Cifra Club

Deceiver Of Fools

Within Temptation

Tablatura: Principal (guitarra)
Tom: C#
Tunning: Half Tone Down (Eb Ab Db Gb Bb eb) 


        INTRO:(DISTORTION) (02:05) 
P.M  * * * *        * * * * 
  |----------------------------------| 
  |----------------------------------| 
  |----------------------------------| 
  |--7-7-7-7--------7-7-7-7----------| 
  |--5-5-5-5---3--5-5-5-5-5----5--7--| 
  |------------1--3------------3--5--| 


        POST INTRO:(DISTORTION) (02:22) 
P.M ***********************  ************************ 
  |---------------------------------------------------------| 
  |---------------------------------------------------------| 
  |---------------------------------------------------------| 
  |-777777777755533333335555-7777777777555------------------| 
  |-555555555533311111113333-5555555555333333333335555------| 
  |---------------------------------------111111113333------| 

P.M *********************** 
  |----------------------------------| 
  |----------------------------------| 
  |----------------------------------| 
  |-777777777755533333335555---------| 
  |-555555555533311111113333--5--7---| 
  |---------------------------3--5---| 


           1st VERSE:(DISTORTION)(02:53) 
P.M 
  |----------------| 
  |----------------| 
  |----------------| 
  |---------5------| 
  |-----3---3------| 
  |-----1----------| 





        Chorus:(DISTORTION) (03:11) 
P.M   *   * *    * *   * 
  |--------------------------------| 
  |--------------------------------| 
  |--------------------------------|  X2 
  |-----5-3-5-7--7-7-3-5-3--5--7---| 
  |-3-3-3-1-3-5--5-5-1-3-1--3--5---| 
  |-1-1----------------------------| 

        2nd VERSE:(DISTORTION) (03:28) 
PM  *************************************************************** 
  |-------------------------------------------------------------------| 
  |-------------------------------------------------------------------| 
  |-------------------------------------------------------------------| 
  |-------------------------------------------------------------------| 
  |-555555555---------------------------------------------------------| 
  |----------666666666888888888555555555666666666333333333555555555---| 


P.M 
  |----------------| 
  |----------------| 
  |----------------| 
  |---------5------| 
  |-----3---3------| 
  |-----1----------| 


PM  *************************************************************** 
  |-------------------------------------------------------------------| 
  |-------------------------------------------------------------------| 
  |-------------------------------------------------------------------| 
  |-------------------------------------------------------------------| 
  |-555555555---------------------------------------------------------| 
  |----------666666666888888888555555555666666666333333333555555555---| 


Chorus:(DISTORTION) (04:00) 
P.M   *   * *    * *   * 
  |--------------------------------| 
  |--------------------------------| 
  |--------------------------------|  X2 
  |-----5-3-5-7--7-7-3-5-3--5--7---| 
  |-3-3-3-1-3-5--5-5-1-3-1--3--5---| 
  |-1-1----------------------------| 

INTERLUDE: (04:33) 

PM                               * *      * * 
  |-----------------------------------------------| 
  |-----------------------------------------------| 
  |-----------------------------------------------| 
  |-----------7---7-----5---5----7-7-7----7-7-7---| 
  |-5---5--3--5---5-----3---3----5-5-5----5-5-5---| 
  |-3---3--1--------------------------------------| 


PM 
  |----------------------------------------------| 
  |----------------------------------------------| 
  |----------------------------------------------| 
  |-----------7---7-----3---3------5---5---------| 
  |-5---5--3--5---5-----1---1------3---3---------| 
  |-3---3--1-------------------------------------| 


Chorus:(DISTORTION) (05:05) 
P.M   *   * *    * *   * 
  |--------------------------------| 
  |--------------------------------| 
  |--------------------------------|  X2 
  |-----5-3-5-7--7-7-3-5-3--5--7---| 
  |-3-3-3-1-3-5--5-5-1-3-1--3--5---| 
  |-1-1----------------------------| 


(DISTORTION) (06:18) 
P.M  * * * *        * * * * 
  |----------------------------------| 
  |----------------------------------| 
  |----------------------------------| 
  |--7-7-7-7--------7-7-7-7----------| 
  |--5-5-5-5---3--5-5-5-5-5----5--7--| 
  |------------1--3------------3--5--| 

P.M ***********************  ************************ 
  |---------------------------------------------------------| 
  |---------------------------------------------------------| 
  |---------------------------------------------------------| 
  |-777777777755533333335555-7777777777555------------------| 
  |-555555555533311111113333-5555555555333333333335555------| 
  |---------------------------------------111111113333------| 

P.M *********************** 
  |----------------------------------| 
  |----------------------------------| 
  |----------------------------------| 
  |-777777777755533333335555---------| 
  |-555555555533311111113333--5--7---| 
  |---------------------------3--5---| 

Chorus:(DISTORTION) (06:52) 
P.M   *   * *    * *   * 
  |--------------------------------| 
  |--------------------------------| 
  |--------------------------------|  X2 
  |-----5-3-5-7--7-7-3-5-3--5--7---| 
  |-3-3-3-1-3-5--5-5-1-3-1--3--5---| 
  |-1-1----------------------------|
reproducciones 65
Acordes para:
    Composição: Within Temptation Colaboración y revision:
    • Hellektra

    0 comentarios

    mostrar más comentarios

    ¿Conseguiste tocar?

    0 tocaron 0 aún no

    ¡Graba un vídeo tocando Deceiver Of Fools y envianoslo!

    00:00 / 00:00
    outros vídeos desta música
    repetir qualidade Automático
    Outros vídeos desta música
    00:00 / 00:00
    Automático
    OK