Cifra Club

Grace

Within Temptation

Tablatura: Principal (guitarra)
Tom: D
Tune to D (D G C F A D) 
 
Riff 1 
|--------------------------------------|---------------------------------------- 
|--------------------------------------|---------------------------------------- 
|--------------------------------------|---------------------------------------- 
|--------------------------------------|-------------------4-------------------- 
|--2--(2)(2)(2)-2--2------5-4------5-4-|-2--(2)(2)(2)-2--2-2-(2)-2h5-7---------- 
|--0--(0)(0)(0)-0--0-3--3-----2--2-----|-0--(0)(0)(0)-0--0-----------5--5-8-7--- 
| 
|--------------------------------------|---------------------------------------- 
|--------------------------------------|---------------------------------------- 
|--------------------------------------|---------------------------------------- 
|--------------------------------------|-----------------3---------3------------ 
|--2--(2)(2)(2)-2--2------5-4------5-4-|-3--(3)(3)(3)(3)----(3)(3)-------------- 
|--0--(0)(0)(0)-0--0-3--3-----2--2-----|-1--(1)(1)(1)(1)----(1)(1)-------------- 
 
 
Riff 2 
|---------------------------------|------------------------------------ 
|---------------------------------|------------------------------------ 
|---------------------------------|------------------------------------ 
|---------7--7--------------------|---------7--7s4--------------------- 
|--2---2--5--5-------5-4------5-4-|--2---2--5--5s2--(2)-2h5-7---------- 
|--0---0--------3--3-----2--2-----|--0---0------------------5--5-8-7--- 
| 
|---------------------------------|--------------------------------------------- 
|---------------------------------|--------------------------------------------- 
|---------------------------------|--------------------------------------------- 
|---------7--7--------------------|---------7--7------------------3---------3--- 
|--2---2--5--5-------5-4------5-4-|--2---2--5--5-----(3)(3)(3)(3)----(3)(3)----- 
|--0---0--------3--3-----2--2-----|--0---0--------1--(1)(1)(1)(1)----(1)(1)----- 
 
Repeat Riff 1 
 
Riff 3 
|---------------------------------|------------------------ 
|---------------------------------|------------------------ 
|---------------------------------|------------------------ 
|---------------------2--------2--|-----------------3------ 
|--7---7---2--(2)-(2)---(2)(2)----|--7---7---3--(3)----3--- 
|--5---5---0--(0)-(0)---(0)(0)----|--5---5---1--(1)----1--- 
| 
|---------------------------------|------------------------ 
|---------------------------------|------------------------ 
|---------------------------------|------------------------ 
|---------------------2--------2--|----------7---7--------- 
|--7---7---2--(2)-(2)---(2)(2)----|--3---3---5---5--------- 
|--5---5---0--(0)-(0)---(0)(0)----|--1---1---5---5--------- 
 
Riff 4 (After interlude) 
|------------------------------------------------------------------- 
|------------------------------------------------------------------- 
|------------------------------------------------------------------- 
|--7--(7)(7)(7)(7)-7--(7)(7)(7)(7)-7--(7)(5)(5)-7-(7)----(7)(7)-7--- 
|--5--(5)(5)(5)(5)-5--(5)(5)(5)(5)-5--(5)(5)(5)-5-(5)-5--(5)(5)-5--- 
|------------------------------------------------------------------- 
 
Repeat Riff 1 
 
Repeat Riff 2 
 
Repeat Riff 1
reproducciones 27
Acordes para:
    Colaboración y revision:
    • Hellektra

    0 comentarios

    mostrar más comentarios

    ¿Conseguiste tocar?

    0 tocaron 0 aún no

    ¡Graba un vídeo tocando Grace y envianoslo!

    00:00 / 00:00
    outros vídeos desta música
    repetir qualidade Automático
    Outros vídeos desta música
    00:00 / 00:00
    Automático
    OK