Cifra Club

Ice Queen

Within Temptation

Tablatura: Principal (guitarra)
Tom: B
Intro 2x:
E|---------------------------------------------------
B|---------------------------------------------------
G|---------------------------------------------------
D|-6--6--6--6--2-2--2-2--2--6--6--6--6---------------
A|-6--6--6--6--2-2--2-2--2--6--6--6--6--4-4--4-4--4--
E|-4--4--4--4--0-0--0-0--0--4--4--4--4--4-4--4-4--4--


E|--------------------------------------------------
B|--------------------------------------------------
G|--------------------------4--4--4--4--3--3--3--3--
D|-6--6--6--6--2-2--2-2--2--4--4--4--4--3--3--3--3--
A|-6--6--6--6--2-2--2-2--2--2--2--2--2--1--1--1--1--
E|-4--4--4--4--0-0--0-0--0--------------------------


Intro Parte 2:
E|-------------------------------||------
B|-------------------------------||------
G|-4--4--4-4--4-4-4--4--4-4--4-4-||-4-3--
D|-4--4--4-4--4-4-4--4--4-4--4-4-||-4-3--
A|-2--2--2-2--2-2-2--2--2-2--2-2-||-2-1--
E|-------------------------------||------


Riff Verso:
E|-------------------------------------------------
B|-------------------------------------------------
G|-------------------------4--4--4--4--------------
D|-6--6--6--6--2--2--2--2--4--4--4--4--4--4--4--4--
A|-6--6--6--6--2--2--2--2--2--2--2--2--4--4--4--4--
E|-4--4--4--4--0--0--0--0--------------2--2--2--2--


Riff Refrão:
E|-----------------------------------------
B|-----------------------------------------
G|-----------------------------------------
D|------6-6-------6-6-------6-6------6-6---
A|-4-4--4-4--6-6--6-6--4-4--4-4-6-6--6-6---
E|-4-4--4-4--4-4--4-4--4-4--4-4-4-4--4-4---

E|-----------------------------------------------------------
B|-----------------------------------------------------------
G|----------------------4--4--4--4---------------------------
D|------6-6-------6-6---4--4--4--4--4--4--4--4---------------
A|-4-4--4-4--6-6--6-6---2--2--2--2--4--4--4--4---------------
E|-4-4--4-4--4-4--4-4---------------2--2--2--2---------------

E|-----------------------------------------------------------
B|-----------------------------------------------------------
G|-----------------------------------------------------------
D|------6-6-------6-6-------6-6------6-6--2-4----------------
A|-4-4--4-4--6-6--6-6--4-4--4-4-6-6--6-6--2-4----------------
E|-4-4--4-4--4-4--4-4--4-4--4-4-4-4--4-4--0-2----------------


Interlúdio 2x:
E|-------------------------------------
B|-------------------------------------
G|--------------------------4--3-------
D|-2---------6----4----2----4--3--6----
A|-2----4----6----4----2----2--1--6----
E|-0----4----4----2----0----------4----


(Intro)

(Intro Parte 2)

(Riff Verso 4x)
When leaves have fallen and skies turned into grey
The night keeps on closing in on the day
A nightingale sings his song of farewell
You better hide for her freezing hell

(Riff Refrão)
On cold wings she's coming
You better keep moving
For warmth, you'll be longing
Come on just feel it
Don't you see it?
You better believe

(Riff Verso 4x)
When she embraces your heart turns to stone
She comes at night when you are all alone
And when she whispers your blood shall run cold
You better hide before she finds you

N.C.
Whenever she is raging
She takes all life away
Haven't you seen?
Haven't you seen?
The ruins of our world
Whenever she is raging
She takes all life away
Haven't you seen?
Haven't you seen?
The ruins of our world

(Intro)

(Intro Parte 2)

(Riff Verso 4x)
She covers the earth with a breathtaking cloak
The sun awakes and melts it away
The world now opens its eyes and sees
The dawning of a new day

(Riff Refrão)
On cold wings she's coming
You better keep moving
For warmth, you'll be longing
Come on just feel it
Don't you see it?
You better believe

(Interlúdio 2x)
Whenever she is raging
She takes all life away
Haven't you seen?
Haven't you seen?
The ruins of our world
Whenever she is raging
She takes all life away
Haven't you seen?
Haven't you seen?
The ruins our world
reproducciones 153
Acordes para:
    Composição: Within Temptation

    0 comentarios

    mostrar más comentarios

    ¿Conseguiste tocar?

    0 tocaron 0 aún no

    ¡Graba un vídeo tocando Ice Queen y envianoslo!

    00:00 / 00:00
    outros vídeos desta música
    repetir qualidade Automático
    Outros vídeos desta música
    00:00 / 00:00
    Automático
    OK