Cifra Club

Pearls Of Light

Within Temptation

Tablatura: Principal (guitarra)
Tom: D
Tune to D (D G C F A D) 
 
Riff 1 
|----------------|----------------|-------------------|-------------------- 
|----------------|----------------|-------------------|-------------------- 
|----------------|----------------|-------------------|-------------------- 
|----------------|-------------7--|-------------------|-------------------- 
|--(2)-2---5--7--|--(2)-2---5--5--|--4--(4)-4---7--9--|--4--(4)-4---7--2--- 
|--(0)-0---3--5--|--(0)-0---3--5--|--2--(2)-2---5--7--|--2--(2)-2---5--0--- 
                                  |..............play 2 times.............. 
 
 
Riff 2 
|--------------------------------------|------------------------------------| 
|--------------------------------------|------------------------------------| 
|------------9---------10--------12-12-|----------9-7-5---------9-9h10-10---| Guitar 1 
|--7--(7)(7)----(7)(7)----(7)(7)-------|------------------------------------| 
|--5--(5)(5)----(5)(5)----(5)(5)-------|--2--(2)--------2--(2)--------------| 
|--5--(5)(5)----(5)(5)----(5)(5)-------|--0--(0)--------0--(0)--------------| 
|                                                                        
|--------------------------------------|------------------------------------| 
|--------------------------------------|------------------------------------| 
|------------9---------10--------12-12-|----------9-7-5-4-------9-9h10-10---| Guitar 2 
|--7--(7)(7)----(0)(0)----(0)(0)-------|------------------------------------| 
|--5--(5)(5)---------------------------|--2---(2)---------------------------| 
|--5--(5)(5)---------------------------|--0---(0)---------------------------| 
 
4th time: 
|--------------------------------------|------------------------------------| 
|--------------------------------------|------------------------------------| 
|------------9---------10--------12-12-|------------------------------------| Guitar 1 & 2 
|--7--(7)(7)----(7)(7)----(7)(7)-------|------------------------------------| 
|--5--(5)(5)----(5)(5)----(5)(5)-------|--7--10-9---------------------------| 
|--5--(5)(5)----(5)(5)----(5)(5)-------|--5--8--7---------------------------| 
 
Repeat Riff 1 
Ends in |------ 
        |------ 
        |------ 
        |------ 
        |--4--- 
        |--2---
reproducciones 39
Acordes para:
    Colaboración y revision:
    • Hellektra

    0 comentarios

    mostrar más comentarios

    ¿Conseguiste tocar?

    0 tocaron 0 aún no

    ¡Graba un vídeo tocando Pearls Of Light y envianoslo!

    00:00 / 00:00
    outros vídeos desta música
    repetir qualidade Automático
    Outros vídeos desta música
    00:00 / 00:00
    Automático
    OK