Cifra Club

Bros

Wolf Alice

Cifrado: Principal (guitarra y guitarra eléctrica)
Selo Cifra Club: esta cifra foi revisada para atender aos critérios oficiais da nossa Equipe de Qualidade.
tono: E
E|--------------------------------------------------|
B|--------------------------------------------------|
G|--------------------------------------------------|
D|--------------------------------------------------|
A|2-2-2-4-4-4-6-6-7-7-7-7-7-7-7-7-14-14-14-12-12-12-|
E|0-0-0-0-0-0-0-0-0-0-0-0-0-0-0-0--0--0--0--0--0--0-|

E|--------------------------------------------------|
B|--------------------------------------------------|
G|--------------------------------------------------|
D|--------------------------------------------------|
A|-14-14-11-11-11-11-11-11-11-11-4-4-4-4-4-4-4-4-7-7|
E|--0--0--0--0--0--0--0--0--0--0-5-5-5-5-5-5-5-5-5-5|

E|--------------------------------------------------|
B|--------------------------------------------------|
G|--------------------------------------------------|
D|--------------------------------------------------|
A|-7-6-6-6-4-4-2-2-2-2-2-2-4-2-2-2-2-2-2-2-2-2-2-2--|
E|-5-5-5-5-5-5-0-0-0-0-0-0-0-0-4-0-0-0-0-0-0-0-0-0--|

E|--------------------------------------------------|
B|--------------------------------------------------|
G|--------------------------------------------------|
D|--------------------------------------------------|
A|-6-6-6-6-6-6-6-5-4-4-4-4-4-4-4-4-2-2-2-2-2-2-2-2--|
E|-7-7-7-7-7-7-7-6-5-5-5-5-5-5-5-5-0-0-0-0-0-0-0-0--|

E|--------------------------------------------------|
B|-------12----10-----------------------------------|
G|---13----13-----13--------------------------------|
D|-14--14----14-------------------------------------|
A|--------------------------------------------------|
E|--------------------------------------------------|

Bridge:
E|--------------------------------------------------|
B|--------------------------------------------------|
G|--------------------------------------------------|
D|---------------------------------6-6-6-6-6-6-6-6-6|
A|-2-2-2-2-2-2-2-2-2-2-2-2-2-2-2-2-4-4-4-4-4-4-4-4-4|
E|-0-0-0-0-0-0-0-0-0-0-0-0-0-0-0-0------------------|

E|--------------------------------------------------|
B|--------------------------------------------------|
G|--------------------------------------------------|
D|-6-6-6-6-6-6-6------------------------------------|
A|-4-4-4-4-4-4-4-2-2-2-2-2-2-2-2-2-2-2-2-2-2-2-2-2--|
E|---------------0-0-0-0-0-0-0-0-0-0-0-0-0-0-0-0-0--|

E|--------------------------------------------------|
B|--------------------------------------------------|
G|--------------------------------------------------|
D|-6-6-6-6-6-6-6-6-6-6-6-6-6-6-6-6-4-4-4-4-4-4-4-4-4|
A|-4-4-4-4-4-4-4-4-4-4-4-4-4-4-4-4-2-2-2-2-2-2-2-2-2|
E|--------------------------------------------------|

E|--------------------------------------------------|
B|--------------------------------------------------|
G|--------------------------------------------------|
D|-4-4-4-4-4-4-4-6-6-6-6-6-6-6-6-6-6-6-6-6-6-6-6-4-4|
A|-2-2-2-2-2-2-2-4-4-4-4-4-4-4-4-4-4-4-4-4-4-4-4-2-2|
E|--------------------------------------------------|

E|--------------------------------------------------|
B|--------------------------------------------------|
G|--------------------------------------------------|
D|-4-4-4-4-4-4-4-4-4-4-4-4-4-4----------------------|
A|-2-2-2-2-2-2-2-2-2-2-2-2-2-2-2-2-2-2-2-2-2-2-2----|
E|-----------------------------0-0-0-0-0-0-0-0-0----|

Otros videos de esta canción
    1.241 exhibiciones
      • ½ Tono
      • A
      • Bb
      • B
      • C
      • Db
      • D
      • Eb
      • E
      • F
      • F#
      • G
      • Ab
    • Agregar a la lista

    Afinación de cifrado

    Afinador online

      OK