Cifra Club

Thug Angels

Wyclef Jean

Tab de bajo: Principal
Written by: Taylor
*

Chorus Riff

G-------------------------------------------------|
D------------------0-1-0-------------------------*|
A--------3-------3-------3----------3-----------3*|
E--3-3-3-------3-----------3--4-4-4-------3-3-3---|

Verse

G--------------------
D--------------------
A--------------------
E--3-----4-4-4-------

Basically, this is the whole song except the very end.  But a nice bass line on a nice song.  Happy Bassing!!!

00:00 / 00:00
Otros videos de esta canción
Repetir
Otros videos de esta canción
Composición de Jerry Duplessis / Wyclef Jean
21 exhibiciones
00:00 / 00:00
OK