Cifra Club

Amethyst

X Japan

Tablatura: Principal (guitarra)
Tom: E
E|---------------7-12-|-(12)----(12)---------|
B|-------5-(5)-8-0----|----------------------|
G|---0-4------------9-|--(9)-----(9)---------|
D|-------------5------|----------------------|
A|-2------------------|--------------10-9-10-|
E|--------------------|----------------------|

E|------------3-7-12-|-(12)----(12)--------|
B|------5-(5)--------|---------------------|
G|------4-(4)-0-4----|---------------------|
D|----5-----------14-|-(14)----(14)-2-4-5--|
A|-7-----------------|---------------------|
E|-0-----------------|---------------------|

E|---------------7-12-|-(12)----(12)-------|----------------|------|
B|-------5-(5)-8-0----|----------------7-8-|-8---7-------5--|-4----|
G|-4---4------------9-|--(9)-----(9)-9-----|-7---7-------5--|-4----|
D|---5---------5------|--------------------|-0-7---7---7----|-4----|
A|--------------------|--------------------|---------5------|------|
E|-7------------------|--------------------|----------------|-7----|

E|---------------------|-----------------|--------3--2----|------|
B|-0----5-7-8--7-(7)-5-|-7---------------|-1----1------5--|-7----|
G|-0-------------------|----7------------|-0--------------|-7----|
D|-2-------------------|------7-9-(9)----|-2--------------|-7----|
A|-3-------------------|-----------------|-0--------------|-5----|
E|---------------------|-7---------------|----------------|------|

E|---------------------|-----------------|--------3--3-5--|------|
B|-0----5-7-8--7-(7)-5-|-7---------------|-1----1---------|-7----|
G|-0-------------------|----7------------|-0--------------|-7----|
D|-2-------------------|------7-9-(9)----|-2--------------|-7----|
A|-3-------------------|-----------------|-0--------------|-5----|
E|---------------------|-7---------------|----------------|------|

E|----------------------|-----------------------|
B|-----0-5-7-8--7-(7)-5-|-7---------------------|
G|-----0----------------|----7------------------|
D|---2------------------|------7-9-(9)-7-9-(9)--|
A|-3--------------------|-----------------------|
E|----------------------|-7---------------------|

E|--------3--2----|---------------------|
B|-------------5--|-7-------------------|
G|------5---------|-7-------------------|
D|-5--------------|-0---------------12--|
A|-7--------------|------9-10-12-14-----|
E|-5--------------|---------------------|

E|----------------------|-----------------------|
B|-------5-7-8--7-(7)-5-|-7---------------------|
G|----------------------|----7------------------|
D|-9---5----------------|------7-9-(9)-7-9-(9)--|
A|---7------------------|-----------------------|
E|-8--------------------|-7---------------------|

E|-------3--3-5--|--------------------|
B|---------------|-7-------7--8-10-12-|
G|-5--5----------|-7---7---7----------|
D|-7-------------|-0-7---7------------|
A|-7-------------|--------------------|
E|-5-------------|--------------------|

E|-----------------|-7-5-3-2-3-(3)---3-5--|
B|---------------5-|-8-------------5------|
G|---0-4-------4---|-9--------------------|
D|-------5---5-----|----------------------|
A|-2---------------|----------------------|
E|---------7-------|----------------------|

E|-7---------------|-7-5-3-2-3-(3)---3-5--|
B|---------5-------|-8-------------5------|
G|-----4-------4---|-9--------------------|
D|---5---5---5---5-|----------------------|
A|-----------------|----------------------|
E|-7---------------|----------------------|

E|-7---------------|-7-5-3-2-3-(3)---3-5--|-----------------|----7--5--7---|
B|---------------5-|-8-------------5------|-7---------------|--------------|
G|-----4-------4---|-9--------------------|-7---7-------7---|--------------|
D|---5---5---5-----|----------------------|-0-7---7---7---7-|--------------|
A|-----------------|----------------------|---------5-------|-6------------|
E|-7-------7-------|----------------------|-----------------|--------------|

E|---------------------|----------------|
B|---------------------|----------------|
G|-21------------------|----19--19------|
D|----21-19-21-(21)----|-0----------21--|
A|---------------------|----21--21------|
E|-20------------------|------------22--|

E|-------------------------|-0--------------|
B|----12-(12)--------------|-0--12--10--12--|
G|-14-------------------11-|-0--12--11--12--|
D|-------------------12----|-2--------------|
A|----------------12-------|-2--------------|
E|-15----------14----------|-0--------------|

E|---------------------|----------------|
B|---------------------|------------19--|
G|-21------------------|----19--19------|
D|----21-19-21-(21)----|-0--------------|
A|---------------------|----21--21------|
E|-20------------------|----------------|

E|---------------------------|--------------|
B|-19-17-(17)----------------|--------------|
G|---------------------------|----4--2--4---|
D|---------------------------|--------------|
A|---------------------------|-2------------|
E|--0----------0-17-19-17-15-|-0------------|

E|-0-----------------|-------------|-----------------2-|-0-----------|
B|-0---------------5-|----3--3-----|---------------3---|-0--0-----0--|
G|-0-4-2-4-(4)---0-4-|----------4--|-2-4-(4)-----2-----|-0--0--2--0--|
D|-2-----------2-----|-------------|-------------------|-2-----2-----|
A|-3-----------------|-5-----------|-------------------|-2-----------|
E|-------------------|-------------|-3-------3-2-------|-------------|

E|-0-----------------|----------2--|-2---------------|----------10-14-----|
B|-0-----------------|-------4-----|-0-5-(5)--(5)----|-(5)---10-------10--|
G|-0-4-2-4-(4)---0-4-|----4--4-----|-0---------------|-----------7-11-11--|
D|-2-----------2-----|-------4-----|-2---------------|--------7-----------|
A|-3-----------------|-5-----------|-3---------------|--------------------|
E|-------------------|-------7-----|-----------------|--------------------|

E|-----------------------|-----------------------|
B|----------7-8--7-(7)-5-|-7---------------------|
G|--------9--------------|----7------------------|
D|------9----------------|------7-9-(9)-7-9-(9)--|
A|---7-10----------------|-----------------------|
E|-8---------------------|-7---------------------|

E|--------3--2----|---------------------|
B|-------------5--|-7-------------------|
G|------5---------|-7-------------------|
D|-5--------------|-0---------------12--|
A|-7--------------|------9-10-12-14-----|
E|-5--------------|---------------------|

E|----------------------|-----------------------|
B|-------5-7-8--7-(7)-5-|-7---------------------|
G|----------------------|----7------------------|
D|-9---5----------------|------7-9-(9)-7-9-(9)--|
A|---7------------------|-----------------------|
E|-8--------------------|-7---------------------|

E|-------3--3-5--|--------------------|
B|---------------|-7-------7--8-10-12-|
G|-5--5----------|-7---7---7----------|
D|-7-------------|-0-7---7------------|
A|-7-------------|--------------------|
E|-5-------------|--------------------|

E|-----------------|-7-5-3-2-3-(3)---3-5--|
B|---------------5-|-8-------------5------|
G|---0-4-------4---|-9--------------------|
D|-------5---5-----|----------------------|
A|-2---------------|----------------------|
E|---------7-------|----------------------|

E|-7---------------|-7-5-3-2-3-(3)---3-5--|
B|---------5-------|-8-------------5------|
G|-----4-------4---|-9--------------------|
D|---5---5---5---5-|----------------------|
A|-----------------|----------------------|
E|-7---------------|----------------------|

E|-7---------------|-7-5-3-2-3-(3)---3-5--|-----------------|----7--5--7---|
B|---------------5-|-8-------------5------|-7---------------|--------------|
G|-----4-------4---|-9--------------------|-7---7-------7---|--------------|
D|---5---5---5-----|----------------------|-0-7---7---7---7-|--------------|
A|-----------------|----------------------|---------5-------|-6------------|
E|-7-------7-------|----------------------|-----------------|--------------|

E|---------------------|----------------|
B|---------------------|----------------|
G|-21------------------|----------------|
D|----21-19-21-(21)----|-0--24--24--21--|
A|---------------------|----21--21------|
E|-20------------------|------------22--|

E|-------------------------|-0--------------|
B|----12-(12)--------------|-0--12--10--12--|
G|-14-------------------11-|-0--12--11--12--|
D|-------------------12----|-2--------------|
A|----------------12-------|-2--------------|
E|-15----------14----------|-0--------------|

E|---------------------|----------------|
B|---------------------|------------19--|
G|-21------------------|----------------|
D|----21-19-21-(21)----|-0--24--24------|
A|---------------------|----21--21------|
E|-20------------------|----------------|

E|---------------------------|--------------|
B|-19-17-(17)----------------|--------------|
G|---------------------------|----4--2--4---|
D|---------------------------|--------------|
A|---------------------------|-2------------|
E|--0----------0-17-19-17-15-|-0------------|

E|-0-----------------|-------------|-----------------2-|-0-----------|
B|-0---------------5-|----3--3-----|---------------3---|-0--0-----0--|
G|-0-4-2-4-(4)---0-4-|----------4--|-2-4-(4)-----2-----|-0--0--2--0--|
D|-2-----------2-----|-------------|-------------------|-2-----2-----|
A|-3-----------------|-5-----------|-------------------|-2-----------|
E|-------------------|-------------|-3-------3-2-------|-------------|

E|-0-----------------|----------2--|-0-0-(0)-0-(0)-------|------3-12----|
B|-0-----------------|-------4-----|-0-0-(0)-0-(0)-------|--------12----|
G|-0-4-2-4-(4)---0-4-|----4--4-----|-0-0-(0)-0-(0)---0-4-|------0--9----|
D|-2-----------2-----|-------4-----|-2-2-(2)-------2-----|---------9----|
A|-3-----------------|-5-----------|-3-------------------|-3------------|
E|-------------------|-------7-----|---------------------|--------------|

E|---------------------|--------12----|-----------------------|-------1------|
B|-7-5-(5)-5-(5)-----5-|------8-12----|-7-5-(5)-5-(5)-------5-|-------2------|
G|-5-5-(5)-5-(5)-----5-|---------9----|-5-5-(5)-5-(5)-----5---|----2--2--1---|
D|-7-7-(7)-7-(7)---7---|------5--9----|-7-7-(7)-7-(7)---7-----|----2-----2---|
A|-7-------------7-----|--------------|-7-------------7-------|-3--------2---|
E|-5-------------------|-0------------|-5---------------------|----------0---|

E|------------------------|-0----*|
B|-2-4-5-(5)-4------------|-0----*|
G|--------------4---------|-1----*|
D|-----------------4-(4)--|-2----*|
A|------------------------|-2----*|
E|------------------------|-0----*|
reproducciones 42
Acordes para:
    Colaboración y revision:
    • Jefferson Sousa

    0 comentarios

    mostrar más comentarios

    ¿Conseguiste tocar?

    0 tocaron 0 aún no

    ¡Graba un vídeo tocando Amethyst y envianoslo!

    00:00 / 00:00
    outros vídeos desta música
    repetir qualidade Automático
    Outros vídeos desta música
    00:00 / 00:00
    Automático
    OK