Cifra Club

Dear Loser

X Japan

Tablatura: Principal (guitarra)
Tom: D#
|---------0-------0-------0-------|-0--------------------------------|
|-5-4-2-----4-2-----4-2-----4-2---|---4-2---5-4-2---5-4-2---5-4-2----|
|-------1-------1-------1-------1-|-------0-------0-------0-------0--|
|---------------------------------|----------------------------------|
|---------------------------------|----------------------------------|
|---------------------------------|----------------------------------|

|---------0-------0-------0-------|-0-------------------------------|
|-5-4-2-----4-2-----4-2-----4-2---|---4-2---5-4-2---5-4-2---5-4-2---|
|-------1-------1-------1-------1-|-------0-------0-------0-------0-|
|---------------------------------|---------------------------------|
|---------------------------------|---------------------------------|
|---------------------------------|---------------------------------|

|--9-------------------------------|---------------------------------|
|-11-------------------------------|---------------------------------|
|--9-------------------------------|---------------------------------|
|-11-------------------------------|---------------------------------|
|----------------------------------|---------------------------------|
|----------------------------------|---------------------------------|

|----------0-------0-------0-------|-0-------------------------------|
|--5-4-2-----4-2-----4-2-----4-2---|---4-2---5-4-2---5-4-2---5-4-2---|
|--------1-------1-------1-------1-|-------0-------0-------0-------0-|
|----------------------------------|---------------------------------|
|----------------------------------|---------------------------------|
|----------------------------------|---------------------------------|

|--9-------------------------------|---------------------------------|
|-11-------------------------------|---------------------------------|
|--9-------------------------------|---------------------------------|
|-11-------------------------------|---------------------------------|
|----------------------------------|---------------------------------|
|----------------------------------|---------------------------------|

|----------0-------0-------0-------|-0-------------------------------|
|--5-4-2-----4-2-----4-2-----4-2---|---4-2---5-4-2---5-4-2---5-4-2---|
|--------1-------1-------1-------1-|-------0-------0-------0-------0-|
|----------------------------------|---------------------------------|
|----------------------------------|---------------------------------|
|----------------------------------|---------------------------------|

|------------------------------------|-----------------9---------------|
|------------------11----------------|---------8---------------8-------|
|----------9-------------------------|-9-------------------------------|
|-11------------------------11-------|---------------------------------|
|------------------------------------|---------------------------------|
|------------------------------------|---------------------------------|

|----------0--------0--------0-------|-0-------------------------------|
|--5-4-2-----4-2------4-2------4-2---|---4-2---5-4-2---5-4-2---5-4-2---|
|--------1-------1--------1--------1-|-------0-------0-------0-------0-|
|------------------------------------|---------------------------------|
|------------------------------------|---------------------------------|
|------------------------------------|---------------------------------|

|-----------------6---------------|---------3-------9-------12-------|
|---------5-----------------------|-5--------------------------------|
|-6-----------------------6-------|----------------------------------|
|---------------------------------|----------------------------------|
|---------------------------------|----------------------------------|
|---------------------------------|----------------------------------|

|---------0-------0-------0-------|-0--------------------------------|
|-5-4-2-----4-2-----4-2-----4-2---|---4-2---5-4-2---5-4-2----5-4-2---|
|-------1-------1-------1-------1-|-------0-------0-------0--------0-|
|---------------------------------|----------------------------------|
|---------------------------------|----------------------------------|
|---------------------------------|----------------------------------|

|------------------------------------|-----------------9---------------|
|------------------11----------------|---------8---------------8-------|
|----------9-------------------------|-9-------------------------------|
|-11------------------------11-------|---------------------------------|
|------------------------------------|---------------------------------|
|------------------------------------|---------------------------------|

|----------0--------0--------0-------|-0-------------------------------|
|--5-4-2-----4-2------4-2------4-2---|---4-2---5-4-2---5-4-2---5-4-2---|
|--------1-------1--------1--------1-|-------0-------0-------0-------0-|
|------------------------------------|---------------------------------|
|------------------------------------|---------------------------------|
|------------------------------------|---------------------------------|

|-----------------6---------------|---------3-------9---------------|
|---------5---------------5-------|-5---------------8---------------|
|-6-------------------------------|-----------------9---------------|
|---------------------------------|---------------------------------|
|---------------------------------|---------------------------------|
|---------------------------------|---------------------------------|

|---------0-------0-------0-------|-0-------------------------------|
|-5-4-2-----4-2-----4-2-----4-2---|---4-2---5-4-2---5-4-2---5-4-2---|
|-------1-------1-------1-------1-|-------0-------0-------0-------0-|
|---------------------------------|---------------------------------|
|---------------------------------|---------------------------------|
|---------------------------------|---------------------------------|

|---------------------------------|---------------------------------|
|---------------------------------|---------------------------------|
|---------------------------------|---------------------------------|
|---------------------------------|---------------------------------|
|---------------------------------|-----------------------------4-4-|
|---------------------------------|-----------------------------2-2-|

|-----------------------------------|-----------------------------------|
|-----------------------------------|-----------------------------------|
|-------4-------4---------4-------4-|--------5-------5--------5-------5-|
|-2-4-6---2-4-6----2--4-6---2-4-6---|-3--5-7---3-5-7---3--5-7---3-5-7---|
|-----------------------------------|-----------------------------------|
|-----------------------------------|-----------------------------------|

|-----------------------------------|-----------------------------------|
|-----------------------------------|-----------------------------------|
|-----------------------------------|-----------------------------------|
|-----------------------------------|-----------------------------------|
|-2---------------(2)-----------2-2-|-3------------3-3-5------------3-3-|
|-0---------------(0)-----------0-0-|-1------------1-1-3------------1-1-|

|---------------------------------------|
|---------------------------------------|
|---------------------------------------|
|--------9--------9----------9--------9-|
|-7-9-11---7-9-11----7--9-11---7-9-11---|
|---------------------------------------|

|---------------------------------------|
|---------------------------------------|
|---------------------------------------|
|---------------------------------------|
|-2-----------------(2)-------------2-2-|
|-0-----------------(0)-------------0-0-|

|---------------------------------------|
|---------------------------------------|
|---------------------------------------|
|--------9--------9----------9--------9-|
|-7-9-11---7-9-11----7--9-11---7-9-11---|
|---------------------------------------|

|---------------------------------------|
|---------------------------------------|
|---------------------------------------|
|---------------------------------------|
|-2-----------------(2)-------------2-2-|
|-0-----------------(0)-------------0-0-|

|-----------------------------------|-----------------------------------|
|-----------------------------------|--------5-------5--------5-------5-|
|-------7-------7---------7-------7-|-5--4-5---5-4-5---5--4-5---5-4-5---|
|-9-7-9---9-7-9----9--7-9---9-7-9---|-----------------------------------|
|-----------------------------------|-----------------------------------|
|-----------------------------------|-----------------------------------|

|-----------------------------------|-----------------------------------|
|-----------------------------------|-----------------------------------|
|-----------------------------------|-----------------------------------|
|-----------------------------------|-----------------------------------|
|-2---------------(2)-----------2-2-|-3------------3-3-5------------3-3-|
|-0---------------(0)-----------0-0-|-1------------1-1-3------------1-1-|

|-----------------------------------|---------------------------------|
|-------3-------3---------3-------3-|-------3-------3-------3-------3-|
|-4-2-4---4-2-4----4--2-4---4-2-4---|-4-2-4---4-2-4---4-2-4---4-2-4---|
|-----------------------------------|---------------------------------|
|-----------------------------------|---------------------------------|
|-----------------------------------|---------------------------------|

|-----------------------------------|---------------------------------|
|-----------------------------------|---------------------------------|
|-----------------------------------|-----------------4---------------|
|-----------------------------------|-----------------2---------------|
|-2---------------(2)-----------2-2-|-2-------------------------------|
|-0---------------(0)-----------0-0-|-0-------------------------------|

|------------|---------------|-----------------|-----------------|
|------------|---------------|-----------------|-----------------|
|--9---------|-10------------|--9--------------|--(9)------------|
|------------|---------------|-----------------|-----------------|
|------------|---------------|-----------------|-----------------|
|-12---------|-13------------|-12--------------|-(12)------------|

|------------|------5--3-----|-----------------|-----------------|
|--5---------|------------6--|--5----(5)-------|-----------------|
|-------4----|-(4)--2--0-----|-----------------|-----------------|
|--2---------|------------3--|--2----(2)---2-3-|---2-------------|
|-------2----|-(2)-----------|-----------------|-----------------|
|------------|---------------|-----------------|-----------------|

|------------|---------------|-----------------|-----------------|
|------------|---------------|-----------------|-----------------|
|------------|---------------|-----------------|-----------------|
|--2---------|------0--------|-----------------|-----------------|
|-------2----|-(2)-----3--5--|-----------------|-----------------|
|------------|---------------|--7----(7)---7-8-|---7-------5-----|

|------------|---------------|-----------------|------------------|
|------------|---------------|-----------------|------------------|
|--9---------|-10------------|--9--------------|--(9)-------------|
|------------|---------------|-----------------|------------------|
|------------|---------------|-----------------|------------------|
|-12---------|-13------------|-12--------------|-(12)-------------|

|------------|------5--3-----|-----------------|------------------|
|--5---------|------------6--|--5----(5)-------|------------------|
|-------4----|-(4)--2--0-----|-----------------|------------------|
|--2---------|------------3--|--2----(2)---2-3-|---2--------------|
|-------2----|-(2)-----------|-----------------|------------------|
|------------|---------------|-----------------|------------------|

|------------|---------------|-----------------|------------------|
|------------|---------------|-----------------|------------------|
|------------|---------------|-----------------|------------------|
|------------|---------------|-----------------|------------------|
|--7---------|---------------|-----------------|------------------|
|-------7----|-(7)--5--7--8--|--7----(7)---7-8-|---7-----0--------|

|----------------------------------|-----------------------------------------|
|----------------------------------|--8--------------------------------------|
|-11-------------------------------|--0--------------------------------------|
|----------------------------------|-----------------------------------------|
|--9-------------------------------|-----------------------------------------|
|----------------------------------|-----------------------------------------|

|----------------------------------|-----------------------------------------|
|--7-------------------------------|-----------------------------------------|
|------------------6---------------|-(6)--------4----------------------------|
|--4-------------------------------|----------------------7---------5--------|
|------------------4---------------|-(4)-------------------------------------|
|----------------------------------|------------7---------5---------3--------|

|--9-7-5-4-9-7-5-4-9-7-5-4-9-7-5-4-|--9--7-5-4-10-9------12-10-9---10-9------|
|----------------------------------|----------------10-9---------9------10-9-|
|----------------------------------|-----------------------------------------|
|----------------------------------|-----------------------------------------|
|----------------------------------|-----------------------------------------|
|----------------------------------|-----------------------------------------|

|---------------------------------|------------------------------------------|
|---------------------------------|------------------------------------------|
|-11------------------------------|-11---------------------------------------|
|---------------------------------|------------------------------------------|
|--9------------------------------|--9---------------------------------------|
|---------------------------------|------------------------------------------|

|---------------------------------|------------------------------------------|
|---------------------------------|--7---------------------------------------|
|---------------------------------|----------------------6-------------------|
|--4------------------------------|--4---------------------------------------|
|---------------------------------|----------------------4-------------------|
|--2------------------------------|------------------------------------------|

|--9-7-5-4-5-7-9-10-9-7-5-4-5-7---|--9--7----7-9--7----7-9--7------9--7----7-|
|-------------------------------9-|----10-9-10---10-9-10---10-9-10---10-9-10-|
|---------------------------------|-----------------------------13-----------|
|---------------------------------|------------------------------------------|
|---------------------------------|------------------------------------------|
|---------------------------------|------------------------------------------|

|-----------------------------------------------|
|--8--------------------------------------------|
|--0--------------------------------------------|
|-----------------------------------------------|
|-----------------------------------------------|
|-----------------------------------------------|

|-----------------------------------------------|
|-----------------------------------------------|
|-(6)----------4--------------------------------|
|-------------------------7-----------5---------|
|-(4)-------------------------------------------|
|--------------7----------5-----------3---------|

|-10---9-9-12-10--9-9-12-14-12-12-10-10--9----7-|
|-----12---15----12---15----15----14----12-9-10-|
|-----------------------------------------------|
|-----------------------------------------------|
|-----------------------------------------------|
|-----------------------------------------------|

|-------------------------------------------|
|-------------------------------------------|
|-11----------------------------------------|
|-------------------------------------------|
|--9----------------------------------------|
|-------------------------------------------|

|-------------------------------------------|
|-------------------------------------------|
|-------------------------------------------|
|--4-------------------(4)------------------|
|-------------------------------------------|
|--2-------------------(2)--------------2-3-|

|--9--7----7-9--7----7--9---7------9--7-7---|
|----10-9-10---10-9-10-----10-9-10---10-----|
|-------------------------------13----------|
|-------------------------------------------|
|-------------------------------------------|
|-------------------------------------------|

|-------------------------------------------|------------|---------------|
|-------------------------------------------|------------|---------------|
|-(11)--------------------------------------|--9---------|-10------------|
|-------------------------------------------|------------|---------------|
|--(9)--------------------------------------|------------|---------------|
|-------------------------------------------|-12---------|-13------------|

|-------------------------------------------|------------|------5--3-----|
|-------------------------------------------|--5---------|------------6--|
|-------------------------------------------|-------4----|-(4)--2--0-----|
|-------------------------------------------|--2---------|------------3--|
|-------------------------------------------|-------2----|-(2)-----------|
|---2---------------------------------------|------------|---------------|

|--14--12-12-10-10--9-9--7-10--9-9--7-7-5---|------------|---------------|
|------15----14----12---10----12---10---9-6-|------------|---------------|
|-------------------------------------------|------------|---------------|
|-------------------------------------------|------------|---------------|
|-------------------------------------------|--7---------|------5--3--5--|
|-------------------------------------------|-------7----|-(7)-----------|

|-----------------|--------------|------------|----------------|
|-----------------|--------------|------------|----------------|
|--9--------------|--(9)---------|--9---------|-10-------------|
|-----------------|--------------|------------|----------------|
|-----------------|--------------|------------|----------------|
|-12--------------|-(12)---------|-12---------|-13-------------|

|-----------------|--------------|------------|------5--3------|
|--5----(5)-------|--------------|--5---------|------------6---|
|-----------------|--------------|-------4----|-(4)--2--0------|
|--2----(2)---2-3-|---2----------|--2---------|------------3---|
|-----------------|--------------|-------2----|-(2)------------|
|-----------------|--------------|------------|----------------|

|-----------------|--------------|------------|----------------|
|-----------------|--------------|------------|----------------|
|-----------------|--------------|------------|----------------|
|-----------------|--------------|------------|----------------|
|-----------------|-----------7--|--7---------|----------------|
|--7----(7)---7-8-|---7----------|-------7----|-(7)--5--7--8---|

|-----------------|-------------|-----------------------------------|
|-----------------|-------------|-----------------------------------|
|--9--------------|--(9)--------|-----------------------------------|
|-----------------|-------------|-----------------------------------|
|-----------------|-------------|-----------------------------------|
|-12--------------|-(12)--------|-----------------------------------|

|-----------------|-------------|-----------------------------------|
|--5----(5)-------|-------------|-----------------------------------|
|-----------------|-------------|-----------------------------------|
|--2----(2)---2-3-|---2---------|-----------------------------------|
|-----------------|-------------|-2---2-2-2---2-2-2---2-2-3--3--3-3-|
|-----------------|-------------|-0---0-0-0---0-0-0---0-0-1--1--1-1-|

|-----------------|-------------|-7-------7-------7-------8---------|
|-----------------|-------------|---8-8-----8-8-----8-8-----10-10---|
|-----------------|-------------|---9-------9-------9-------11------|
|-----------------|-------------|-----------------------------------|
|-----------------|-------------|-----------------------------------|
|--7----(7)---7-8-|---7---------|-----------------------------------|

|---------------------------------------------|
|---------------------------------------------|
|---------------------------------------------|
|---------------------------------------------|
|--2-----2-2--2-----2-2--2-----2-2--3--3--3-3-|
|--0-----0-0--0-----0-0--0-----0-0--1--1--1-1-|

|---------------------------------------------|
|-12---------12---------12---------13---------|
|----12-12------12-12------12-12------14-14---|
|----14---------14---------14---------16------|
|---------------------------------------------|
|---------------------------------------------|

|---------------------------------------------|
|---------------------------------------------|
|---------------------------------------------|
|---------------------------------------------|
|--2-----2-2--2-----2-2--2-----2-2--3--3--3-3-|
|--0-----0-0--0-----0-0--0-----0-0--1--1--1-1-|

|---------------------------------------------|
|-12---------12---------12---------13---------|
|----12-12------12-12------12-12------14-14---|
|----14---------14---------14---------16------|
|---------------------------------------------|
|---------------------------------------------|

|---------------------------------------------|----------|--------*|
|---------------------------------------------|----------|--------*|
|---------------------------------------------|----------|--------*|
|---------------------------------------------|----------|--------*|
|--2-----2-2--2-----2-2--2-----2-2--3--3----3-|-2--------|-(2)----*|
|--0-----0-0--0-----0-0--0-----0-0--1--1----1-|-0--------|-(0)----*|

|---------------------------------------------|----------|--------*|
|-12---------12---------12---------13---------|----------|--------*|
|----12-12------12-12------12-12------14------|----------|--------*|
|----14---------14---------14--------------15-|----------|--------*|
|---------------------------------------------|-2--------|-(2)----*|
|---------------------------------------------|-0--------|-(0)----*|
reproducciones 37
Acordes para:
    Colaboración y revision:
    • Jefferson Sousa

    0 comentarios

    mostrar más comentarios

    ¿Conseguiste tocar?

    0 tocaron 0 aún no

    ¡Graba un vídeo tocando Dear Loser y envianoslo!

    00:00 / 00:00
    outros vídeos desta música
    repetir qualidade Automático
    Outros vídeos desta música
    00:00 / 00:00
    Automático
    OK