Cifra Club

Forever Love

X Japan

Tablatura: Principal (guitarra)
Tom: Bb (con acordes en la forma de C) Afinação: D G C F A D
Intro: C  G  Am  F  G  C  G  Am  G  C  G
  C                           G                        Am
E|--------------0------------|-------------3----------|-------------0----------|
B|-------1--------1------1---|-------0-------0---0----|-------1-------1----1---|
G|-----0---0--------0-----0--|-----0---0-------0---0--|-----2---2-------2---2--|
D|---2-------2-------------2-|---0-------0-----------0|---2-------2----------2-|
A|-3-------------------------|------------------------|-0----------------------|
E|---------------------------|-3----------------------|------------------------|

        F     G
E|-----------0----------------|-------0-----0-----0------|-------3-----3-----------|-------5-----------3---|
B|--------1----3---------0----|-----1---1-----1-----1----|-----0---0-----0-------0-|-----5---5-------0---0-|
G|------2--------------0---0--|---0-------0-----0-----0--|---0-------0-----0---0---|---5-------5---0------0|
D|---3--------------0--------0|--------------------------|-------------------0-----|-----------------------|
A|----------------------------|-3------------------------|-------------------------|-0---------------------|
E|-1------------3-------------|--------------------------|-3-----------------------|-------------3---------|

E|--------1--------------|-------3-----|      |-1-------1------0------0-------|
B|------1---1------------|-----0---0---|      |-1-----1---1----1----1---1-----|
G|----2-------2----------|---0-------0-| (2x) |-----0-------0-----0-------0---|  
D|-----------------------|-------------|      |-------------------------------|
A|-----------------------|-------------|      |-------------------------------|
E|-1---------------------|-3-----------|      |-3--------------3--------------|

Verso:
C     G      Am     Am7
mou hitori de arukenai
F         Em          G
toki no kaze ga tsuyosugite
C         G          Am
Ah kizutsuku koto nante
F             G
nareta hazu dakedo ima wa
C         G          Am
Ah kono mama dakishimete
F         Em          G
nureta mama no kokoro o
C         G          Am
kawaritsuzukeru kono toki ni
F             G              F
kawaranai ai ga aru nara

Pré-Refrão:
Em
Will you hold my heart
G             Am
namida uketomete
F             Em              G
mou kowaresou na All my heart

Refrão:
C                      Am
Forever Love Forever Dream
Em         F              G
afureru omoi dake ga
C         Am          Em          F          G
hageshiku setsunaku jikan o umetsukusu
C     F     G     Am
Oh Tell my why - - -

F             G              F
All I see is blue in my heart

Pré-Refrão:
Em
Will you stay with me
G             Am
kaze ga sugisaru made
F         Em          G
mata afuredasu All my tears

Refrão:
C                      Am
Forever Love Forever Dream
Em         F          G
kono mama soba ni ite
C         Am          Em          F          G
yoake ni furueru kokoro dakishimete

Oh Stay with me

Solo: G#  C#  D#  F
      F  D  Dm  G  F  C
      F  C  Dm  G  F  D#
      F  G

Verso 2:
C     G     Am     Am7
Ah subete ga owareba ii -
F         Em          G
owari no nai kono yoru ni
C     G     Am     Am7
Ah ushinau mono nante -
F         F          G
nanimo nai anata da-ke

Refrão:
C                      Am
Forever Love Forever Dream
Em         F          G
kono mama soba ni ite
C         Am          Em          F          G
yoake ni furueru kokoro dakishimete

Pré-Refrão:
F                  Em
Ah Will you stay with me
G                  Am
kaze ga sugiaru made
F         Em           G
mou dare yori mo soba ni

Refrão:
C                 Am
Forever Love Forever Dream
Em       F         G
kore ijyou arukenai
C                  Am
Oh Tell me why Oh Tell me true
Em     F     G
oshiete ikiru imi o
C                  Am
Forever Love Forever Dream
Em         F          G
afureru namida no naka
C         Am          Em          F          G
kagayaku kisetsu ga eien ni kawaru made
C
Forever Love
reproducciones 280
Acordes para:
    Composição: Yoshiki Colaboración y revision:
    • vanderval silva
    • Henrique Jasa

    0 comentarios

    mostrar más comentarios

    ¿Conseguiste tocar?

    2 tocaron 0 aún no

    ¡Graba un vídeo tocando Forever Love y envianoslo!

    00:00 / 00:00
    outros vídeos desta música
    repetir qualidade Automático
    Outros vídeos desta música
    00:00 / 00:00
    Automático
    OK