Cifra Club

Jade

X Japan

Tablatura: Principal (guitarra)
Tom: G
E|---------------------------------------------------------------------------|
B|---------------------------------------------------------------------------|
G|---------------------------------------------------------------------------|
D|--------------------2--2------------------2--2------------------2--2-------|
A|-0-0-0-0-0-0-0-0-0--0--0---0-0-0-0-0-0-0--0--0---0-0-0-0-0-0-0--0--0-------|
E|---------------------------------------------------------------------------|

E|--------------|
B|--------------|
G|--------------|
D|--------------|
A|-0-1-0-1-0--1-|
E|-----------3--|

E|---------------------------------------------------------------------------|
B|---------------------------------------------------------------------------|
G|---------------------------------------------------------------------------|
D|--------------------2--2------------------2--2------------------2--2-------|
A|-0-0-0-0-0-0-0-0-0--0--0---0-0-0-0-0-0-0--0--0---0-0-0-0-0-0-0--0--0-------|
E|---------------------------------------------------------------------------|

E|--------------|
B|--------------|
G|--------------|
D|--------------|
A|-0-1-0-3-0-1~-|
E|--------------|

E|---------------------------------------------------------------------------|
B|---------------------------------------------------------------------------|
G|---------------------------------------------------------------------------|
D|--------------------2--2------------------2--2------------------2--2-------|
A|-0-0-0-0-0-0-0-0-0--0--0---0-0-0-0-0-0-0--0--0---0-0-0-0-0-0-0--0--0-------|
E|---------------------------------------------------------------------------|

E|--------------|
B|--------------|
G|--------------|
D|--------------|
A|-0-1-0-1-0--1-|
E|-----------3--|

E|---------------------------------------------------------------------------|
B|---------------------------------------------------------------------------|
G|---------------------------------------------------------------------------|
D|--------------------2--2------------------2--2------------------2--2-------|
A|-0-0-0-0-0-0-0-0-0--0--0---0-0-0-0-0-0-0--0--0---0-0-0-0-0-0-0--0--0-------|
E|---------------------------------------------------------------------------|

E|----------|
B|----------|
G|----------|
D|----------|
A|----------|
E|-3/12\3---|
^just make a slide, something like this^

E|---------------------------------------------------------------------------|
B|---------------------------------------------------------------------------|
G|-2-----------2----------------2-----------2----------------2-----------2---|
D|-2-----------2----------------2-----------2----------------2-----------2---|
A|-0-1-0-1-0-1-0--0-1-0-1-0-1~--0-1-0-1-0-1-0--0-1-0-1-0---1-0-1-0-1-0-1-0---|
E|-------------------------------------------------------3-------------------|

E|---------------------------------------------------------------------------|
B|-----------------------------------------------16-----16----16----16-------|
G|---------------2-----------2-------------------15-----15----15----15-------|
D|---------------2-----------2-----------------------------------------------|
A|-0-1-0-1-0-1~--0-1-0-1-0-1-0--0-1-0-3-0-1~--0-0----0-0---0-0---0-0---------|
E|---------------------------------------------------------------------------|

E|-0------------0------------0--------3--------------------------------------|
B|-1------------0------------1-----------0h1--0------------------------------|
G|-0------------0------------0--------------------0--------------------------|
D|-2------------0------------2------2----------------------------------------|
A|-3------------3------------------------------------------------------------|
E|---------------------------------------------------------------------------|

E|-0------------0------------0------0----------------------------------------|
B|-1------------3------------0---------0-------------------------------------|
G|-0------------0------------0------------0----------------------------------|
D|-2------------4------------0-----------------------------------------------|
A|-3------------5------------3-----------------------------------------------|
E|---------------------------------------------------------------------------|

E|-0------------0------------------------------------------------------------|
B|-1------------3------------------------------------------------------------|
G|-0------------0------------------------------------------------------------|
D|-2------------4------------------------------------------------------------|
A|-3------------5------------------------------------------------------------|
E|---------------------------------------------------------------------------|

E|---------------------------------------------------------------------------|
B|---------------------------------------------------------------------------|
G|-5--4--2-----------5-----5--4--2-----------5-------------------------------|
D|-5--5--2--2--3--5--5--5--5--5--2--2--3--5--5-------------------------------|
A|-3--2--0--2--3--5--3--5--3--2--0--2--3--5--3-------------------------------|
E|----------0--1--3-----3-----------0--1--3----------------------------------|

E|---------------------------------------------------------------------------|
B|---------------------------------------------------------------------------|
G|-2-----------22----------------2-----------22----------------2-----------22|
D|-2-----------22----------------2-----------22----------------2-----------22|
A|-0-1-0-1-0-1-00--0-1-0-1-0-1~--0-1-0-1-0-1-00--0-1-0-1-0---1-0-1-0-1-0-1-00|
E|---------------------------------------------------------3-----------------|

E|---------------------------------------------------------------------------|
B|---------------------------------------------------------------------------|
G|---------------2-----------22----------------------------------------------|
D|---------------2-----------22----------------------------------------------|
A|-0-1-0-1-0-1~--0-1-0-1-0-1-00-0-1-0-3-0-1~---------------------------------|
E|---------------------------------------------------------------------------|

E|---------------------------------------------------------------------------|
B|---------------------------------------------------------------------------|
G|---------------------------------------------------------------------------|
D|-3---------33---------2---------22-----------------------------------------|
A|-3---------33---------2---------22-----------------------------------------|
E|-1-1-1-1-1-11-1-1-1-1-0-0-0-0-0-00-----------------------------------------|

E|---------------------------------------------------------------------------|
B|---------------------------------------------------------------------------|
G|-2-----------22----------------2-----------22------------------------------|
D|-2-----------22----------------2-----------22------------------------------|
A|-0-1-0-1-0-1-00--0-1-0-1-0-1~--0-1-0-1-0-1-00--0-1-0-1-0--1----------------|
E|---------------------------------------------------------3-----------------|

E|-0------------0--------------3-----3-----3-----3---------------------------|
B|-1------------3----------------1-----1-----1-----1-------------------------|
G|-0------------0------------------------------------------------------------|
D|-2------------4-----------------------------------------5---------5--------|
A|-3------------5------------3-----2-----0-----3--------3---3~----5----------|
E|----------------------------------------------------1---------3------------|

E|---------------------------------------------------------------------------|
B|---------------------------------------------------------------------------|
G|-5--4--2-----------5-----5--4--2-----------5-------------------------------|
D|-5--5--2--2--3--5--5--5--5--5--2--2--3--5--5-------------------------------|
A|-3--2--0--2--3--5--3--5--3--2--0--2--3--5--3-------------------------------|
E|----------0--1--3-----3-----------0--1--3----------------------------------|

E|---------------------------------------------------------------------------|
B|---------------------------------------------------------------------------|
G|----10--8--88--6--66-------------10-8-6--8---------------------------------|
D|-3--10--8--88--6--66---------6-5-10-8-6--8--6------------------------------|
A|-3--8---6--66--4--44---------6-5-8--6-4--6--6------------------------------|
E|-1-------------------3/12\3--4-3------------4------------------------------|
reproducciones 108
Acordes para:
    Composição: Yoshiki Colaboración y revision:
    • Jefferson Sousa

    0 comentarios

    mostrar más comentarios

    ¿Conseguiste tocar?

    1 tocaron 0 aún no

    ¡Graba un vídeo tocando Jade y envianoslo!

    00:00 / 00:00
    outros vídeos desta música
    repetir qualidade Automático
    Outros vídeos desta música
    00:00 / 00:00
    Automático
    OK