Cifra Club

Kurenai

X Japan

Tablatura: Principal (guitarra)
Tom: A
Intro 
--------------------------------------------------------------------------- 
-0h1---3---1-------0-----1-----3-p1------0h1---3---1-------0-------0------- 
-----2---2---2---2---2-----2--------2--------2---2---2---2---2---0---0---0- 
---------------2-------2-----2-------------------------2-------2-------2--- 
--------------------------------------------------------------------------- 
--------------------------------------------------------------------------- 
 
-------------------0--------0-------------------------0---------0-------- 
-0h1---3---1---------1---1----0---0---0---3---0---3-----0---0-----3---1-- 
-----2---2---2---2-----2--------2-------1---1---1---1-----1---------1---- 
---------------2--------------------------------------------------------- 
------------------------------------------------------------------------- 
------------------------------------------------------------------------- 
 
--------------------------------------------------------------------------- 
-0h1---3---1-------0-----1-----3-p1------0h1---3---1-------0-------0------- 
-----2---2---2---2---2-----2--------2--------2---2---2---2---2---0---0---0- 
---------------2-------2-----2-------------------------2-------2-------2--- 
--------------------------------------------------------------------------- 
--------------------------------------------------------------------------- 
 
-----------0-----0-----0-----------------------------0-------0-- 
-0h1---3-----3-----1-----0---0-----0---3---0---3-------0---0---- 
-----2---------2-----2-----2---2-----1---1---1---1-------1------ 
---------2------------------------------------------------------ 
---------------------------------------------------------------- 
---------------------------------------------------------------- 
 
 
 
Vocais: 
 
 
-5-----5-------5-----------8--------8--------3-------3-------1-------0-- 
-5---5---5---5-----------8---8---9---------3---3---3-------1-------0---- 
---5-------5-----------9-------9---------4-------4-------2-------1------ 
-------------------10-----------------5---------------3-------2-------- 
------------------------------------------------------------------------- 
------------------------------------------------------------------------- 
 
--------5-------5---------8-12----8-10--------3----------------7p5---5--7- 
------5---5---5---------8------8------------3----1--0--5-5---5-----5------ 
----5-------5---------9-------------------4------2--1--5---5-------------- 
--7----------------10-------------------5--------3--2--7------------------ 
-------------------------------------------------------------------------- 
-------------------------------------------------------------------------- 
 
--------5-------5---------8-12----8-10--------3--------5h7--7p5------7--- 
------5---5---5---------8------8------------3----1--0--5--------5----5--- 
----5-------5---------9-------------------4------2--1--5----------5--5--- 
--7----------------10-------------------5--------3--2--7-------------7--- 
------------------------------------------------------------------------- 
------------------------------------------------------------------------- 
 
 
Agora liga a distorção...-.- 
 
---------------------------------------------------------- 
---------------------------------------------------------- 
------------------------------9--------------------------- 
--9h10--10-9-7--7-9-10-12-10----12-10-7-6-7-9-10-12-10---- 
---------------------------------------------------------- 
---------------------------------------------------------- 
 
 
A5                        F5   G5   A5 
arashi fuku kono machi ga omae wo daku  
                       F5    G5  A5 
fukinukeru kaze ni sae me wo tojiru  
 
(Os E5 daqui por diante são logo após o D#5, 
e não Em que faz som grave na música ;-)) 
 
   F5   G5       A5     C5     D5       E5 
omae wa hashiridasu nanika ni owareru you  
    F5   G5      A5      F5   G5       A5 
ore ga mienai no ka sugu soba ni iru noni  
 
 
A5                     F5 G5       A5 
hitonami ni kiete yuku kioku no toiki  
                       F5    G5     A5 
ai no nai hitori butai mou taekirenai  
 
 
       F5     G5     A5      
All of you in my memory is  
C      D            E5     
still shining in my heart  
    F5   G5       A5   F5      G5        A5 
surechigau kokoro wa afureru namida ni nure  
 
 
A5         G5      F5       E5 
kurenai ni somatta kono ore wo  
A5         G5       F5  G5 A5 
nagusameru yatsu wa mou inai  
 
 
A5            G5      F5      E5 
mou nido to todokanai kono omoi  
A5         G5 
tozasareta ai ni mukai  
F5  G5       A5 
sakebitsuzukeru  
 
 
   F5   G5       A5     C5     D5       E5 
omae wa hashiridasu nanika ni owareru you  
    F5   G5      A5      F5   G5       A5 
ore ga mienai no ka sugu soba ni iru noni 
 
 
 
A5         G5      F5       E5 
kurenai ni somatta kono ore wo  
A5         G5       F5  G5 A5 
nagusameru yatsu wa mou inai  
 
 
A5           G5      F5      E5 
mou nido to todokanai kono omoi  
A5          G5 
tozasareta ai ni mukai  
F5  G5       A5 
sakebitsuzukeru 
 
 
A5         G5      F5       E5 
kurenai ni somatta kono ore wo  
A5         G5       F5  G5 A5 
nagusameru yatsu ha mou inai  
 
 
F5 G5             A5 
Ah Crying in deep red
reproducciones 199
Acordes para:
    Composição: Yoshiki

    0 comentarios

    mostrar más comentarios

    ¿Conseguiste tocar?

    3 tocaron 0 aún no

    ¡Graba un vídeo tocando Kurenai y envianoslo!

    00:00 / 00:00
    outros vídeos desta música
    repetir qualidade Automático
    Outros vídeos desta música
    00:00 / 00:00
    Automático
    OK