Cifra Club

White Wind From Mr Martin

X Japan

Tablatura: Principal (guitarra)
Tom: D
E|-------|-------------||-2----------2-----|
B|-2-----|-3-----5-----||----3---------3---|
G|----2--|----2-----4--||------2-(2)-----2-|
D|-------|-------------||-0----------------|
A|-0-----|-2-----4-----||------------------|
E|-------|-------------||------------------|

  Dsus4              D                   Dsus4
E|------------------|-------------------|-------------------|
B|-8----------------|-10----------------|-8-----------------|
G|------------------|-------------------|-------------------|
D|------------------|-------------------|-------------------|
A|------------------|-------------------|-------------------|
E|------------------|-------------------|-------------------|

E|-3----------3-----|--5----------5-----|-3----------3------|
B|----3---------3---|-----3---------3---|----3---------3----|
G|------2-(2)-----2-|-------2-(2)-----2-|------2-(2)-----2--|
D|------------------|-------------------|-------------------|
A|------------------|-------------------|-------------------|
E|------------------|-------------------|-------------------|

  D                   Dsus4              D                  Dsus4
E|-------------------|-7----------------|-9----------------|-7----------------||
B|-10----------------|------------------|------------------|------------------||
G|-------------------|------------------|------------------|------------------||
D|-------------------|------------------|------------------|------------------||
A|-------------------|------------------|------------------|------------------||
E|-------------------|------------------|------------------|------------------||

E|--2----------2-----|-3----------3-----|-5----------5-----|-3----------3-----||
B|-----3---------3---|----3---------3---|----3---------3---|----3---------3---||
G|-------2-(2)-----2-|------2-(2)-----2-|------2-(2)-----2-|------2-(2)-----2-||
D|--0----------------|------------------|------------------|------------------||
A|-------------------|------------------|------------------|------------------||
E|-------------------|------------------|------------------|------------------||

  Cadd9                G                    D
E|--------------------|--------------------|--------------------|
B|--------------------|--------------------|--------------------|
G|---------7-(7)---9--|-9b10----9-(9)---7--|-5s7----------------|
D|-/10----------------|--------------------|--------------------|
A|--------------------|--------------------|--------------------|
E|--------------------|--------------------|--------------------|

E|---------------3----|---------------3----|--------------2-----|
B|---------3-(3)---3--|---------3-(3)---3--|--------3-(3)---3---|
G|-------0------------|-------0------------|------2-------------|
D|--------------------|--------------------|---0----------------|
A|---3----------------|-2------------------|--------------------|
E|--------------------|--------------------|--------------------|

  D                   Cadd9                 G
E|-------------------|---------------------|---------------------|
B|-------------------|-7-----8-(8)---8s10--|-8------(8)-10b12----|
G|-(7)---------------|---------------------|---------------------|
D|-------------------|---------------------|---------------------|
A|-------------------|---------------------|---------------------|
E|-------------------|---------------------|---------------------|

E|--3p2---------2----|-------------3-------|-------------3-------|
B|------3---------3--|-------3-(3)------3--|------3-(3)-------3--|
G|--------2-(2)------|-----0---------------|----0----------------|
D|--0----------------|---------------------|---------------------|
A|-------------------|-3-------------------|-2-------------------|
E|-------------------|---------------------|---------------------|

  D                                             Cadd9                G
E|-10---------------------|--------------------|--------------------|---------------------|
B|----------------10pb12r=|=(10)---------------|--------------------|---------------------|
G|------------------------|--------------------|---------7-(7)---9--|-9b10----9-(9)---7---|
D|------------------------|--------------------|-/10----------------|---------------------|
A|------------------------|--------------------|--------------------|---------------------|
E|------------------------|--------------------|--------------------|---------------------|

E|--------------2---------|---3p2---------2----|---------------3----|---------------3-----|
B|--------3-(3)----3------|-------3---------3--|---------3-(3)---3--|---------3-(3)---3---|
G|------2-----------------|---------2-(2)------|-------0------------|-------0-------------|
D|--0---------------------|---0----------------|--------------------|---------------------|
A|------------------------|--------------------|---3----------------|-2-------------------|
E|------------------------|--------------------|--------------------|---------------------|

  D                                       Cadd9
E|-------------------|-------------------|----------------------|
B|-------------------|-------------------|-/7-----8-(8)---8s10--|
G|-5s7---------------|-(7)---------------|----------------------|
D|-------------------|-------------------|----------------------|
A|-------------------|-------------------|----------------------|
E|-------------------|-------------------|----------------------|

E|--------------2----|--3p2---------2----|--------------3-------|
B|--------3-(3)---3--|------3---------3--|--------3-(3)------3--|
G|------2------------|--------2-(2)------|------0---------------|
D|---0---------------|--0----------------|----------------------|
A|-------------------|-------------------|--3-------------------|
E|-------------------|-------------------|----------------------|

  G                   D                                         F
E|-------------------|------------------|---10-7--------------||-------------------|
B|-8------(8)-10s12--|-12---------------|--------10--7--------||-8------6-(6)---8--|
G|-------------------|------------------|---------------9-7---||-------------------|
D|-------------------|------------------|-------------------9-||-------------------|
A|-------------------|------------------|---------------------||-------------------|
E|-------------------|------------------|---------------------||-------------------|

E|-------------3-----|-------------2----|-3p=2----------2-----||--------3-(3)------|
B|------3-(3)-----3--|-------3-(3)---3--|------3----------3---||------3-------3----|
G|----0--------------|-----2------------|---------2-(2)-------||----2-----------2--|
D|-------------------|--0---------------|-0-------------------||-3-----------------|
A|-2-----------------|------------------|---------------------||-------------------|
E|-------------------|------------------|---------------------||-------------------|

  G                     Cadd9               F
E|---------------------|---8-5-------------|-------------------|
B|-8s10----------------|-------8--5--------|-6------5-(5)---6--|
G|---------------------|-------------7-5---|-------------------|
D|---------------------|-----------------7-|-------------------|
A|---------------------|-------------------|-------------------|
E|---------------------|-------------------|-------------------|

E|----------5-(5)------|-------3-(3)-------|--------3-(3)------|
B|--------5-------5----|-----3-------3-----|------3-------3----|
G|------4-----------4--|---0-----------0---|----2-----------2--|
D|----5----------------|-------------------|-3-----------------|
A|---------------------|-3-----------------|-------------------|
E|---------------------|-------------------|-------------------|

                        G                     G
E|---------------------|------------------|---5-----7-----9---|
B|-6s8------6-(6)---8--|-8s10-------------|-----5-----5-------|
G|---------------------|------------------|-0-----0-----0-----|
D|---------------------|------------------|-------------------|
A|---------------------|------------------|-------------------|
E|---------------------|------------------|-------------------|

E|----------3-(3)------|----------5-(5)------|-------------------|
B|--------3-------3----|--------5-------5----|-------------------|
G|------2-----------2--|------4-----------4--|-------------------|
D|---3-----------------|----5----------------|-------------------|
A|---------------------|---------------------|-------------------|
E|---------------------|---------------------|-------------------|

  G
E|-----10---12----14----|-----------------|----------------------|
B|-7------8----10----12-|-----------------|----------------------|
G|---0------------------|-----------------|----------------------|
D|----------------------|-----------------|----------------------|
A|----------------------|-----------------|----------------------|
E|----------------------|-----------------|----------------------|

E|----------------------|---5-----7-----9-|-----10---12----14----|
B|----------------------|-----5-----5-----|-7------8----10----12-|
G|----------------------|-0-----0-----0---|---0------------------|
D|----------------------|-----------------|----------------------|
A|----------------------|-----------------|----------------------|
E|----------------------|-----------------|----------------------|

                                                D6
E|---5-----7-----9-|-----10---12----14----|------^----*|
B|-----5-----5-----|-7------8----10----12-|------^----*|
G|-0-----0-----0---|---0------------------|------^----*|
D|-----------------|----------------------|------^----*|
A|-----------------|----------------------|-----------*|
E|-----------------|----------------------|-----------*|
reproducciones 37
Acordes para:
    Colaboración y revision:
    • Jefferson Sousa

    0 comentarios

    mostrar más comentarios

    ¿Conseguiste tocar?

    0 tocaron 0 aún no

    ¡Graba un vídeo tocando White Wind From Mr Martin y envianoslo!

    00:00 / 00:00
    outros vídeos desta música
    repetir qualidade Automático
    Outros vídeos desta música
    00:00 / 00:00
    Automático
    OK