Cifra Club

X

X Japan

Tablatura: Principal (guitarra)
Tom: D
Álbum: The Last Live
Compositor: Yoshiki
Tab: Pedro Sant'Anna
_______________________________________________________________________________
OBS.: Eu coloquei a tab somente da guitarra 1 (hide).


INTRO:

E|--------------------5-------------------------|
B|--6--------8--------6----------6----6----8----|
G|--7--------7-------------------7----7----9----|
D|----------------------------------------------|
A|----------------------------------------------|
E|----------------------------------------------|

E|--------------------5-------------------------|
B|--6--------8--------6----------6----6----8----|
G|--7--------7-------------------7----7----9----|
D|----------------------------------------------|
A|----------------------------------------------|
E|----------------------------------------------|

E|--------------------5-------------------------|
B|--6--------8--------6----------6----6----8----|
G|--7--------7-------------------7----7----9----|
D|----------------------------------------------|
A|----------------------------------------------|
E|----------------------------------------------|

E|--------------------5-------------------------|
B|--6--------8--------6----------6----6----8----|
G|--7--------7-------------------7----7----9----|
D|----------------------------------------------|
A|----------------------------------------------|
E|----------------------------------------------|

e|-----------------|-----------------|-----------------|---------------|
B|--6-----6--5--8--|--6-----6--5--8--|--6-----6--5--8--|---------------|
G|--7-----7--5--9--|--7-----7--5--9--|--7-----7--5--9--|--3---5--3--5--|
D|-----------------|-----------------|-----------------|--3---5--3--5--|
A|-----------------|-----------------|-----------------|---------------|
E|-----------------|-----------------|-----------------|---------------|

e|-----------------|-----------------|-----------------|---------------|
B|--6-----6--5--8--|--6-----6--5--8--|--6-----6--5--8--|---------------|
G|--7-----7--5--9--|--7-----7--5--9--|--7-----7--5--9--|--3---5--3--5--|
D|-----------------|-----------------|-----------------|--3---5--3--5--|
A|-----------------|-----------------|-----------------|---------------|
E|-----------------|-----------------|-----------------|---------------|

e|-----------------|-----------------|-----------------|---------------|
B|--6-----6--5--8--|--6-----6--5--8--|--6-----6--5--8--|---------------|
G|--7-----7--5--9--|--7-----7--5--9--|--7-----7--5--9--|--3---5--3--5--|
D|-----------------|-----------------|-----------------|--3---5--3--5--|
A|-----------------|-----------------|-----------------|---------------|
E|-----------------|-----------------|-----------------|---------------|

e|-----------------|-----------------|-----------------|---------------|-----|
B|--6-----6--5--8--|--6-----6--5--8--|--6-----6--5--8--|---------------|-----|
G|--7-----7--5--9--|--7-----7--5--9--|--7-----7--5--9--|--3---5--3--5--|--2--|
D|-----------------|-----------------|-----------------|--3---5--3--5--|--2--|
A|-----------------|-----------------|-----------------|---------------|--0--|
E|-----------------|-----------------|-----------------|---------------|-----|


VERSO:

G| 5   7                  3                5              3            2
D| 3   5                  1                5              3            2
A| 3   5                  1                3              1            0
     Samekitta machi ni wakare o tsuge Arekuruu shigeki ni mi o sarase

G|  7                  3              5                  7       x  7  x  x  7    5   
D|  5                  1              5                  7       x  7  x  x  7    5   
A|  5                  1              3                  5       x  5  x  x  5    3  
    Aitsu no hitomi wa hikari-useta Moekuruu kokoro wa ayatsurenai


PONTE:

G|  3        5     2      7
D|  3        5     2      7 
A|  1        3     0      5 
    Midareta ai ni nagasare

e|-----------|--------------------------------|--------------------------------|
B|-----------|--------------------------------|--------------------------------|
G|-----------|--------------------------------|--------------------------------|
D|-----------|--------------------------------|--------------------------------|
A|--3--------|--5--5-5-5-5-5-5-5--5-5-5-5-5-5-|--5--5-5-5-5-5-5-5--5-5-5-5-5-5-|
E|-----6--5--|--3--3-3-3-3-3-3-3--3-3-3-3-3-3-|--3--3-3-3-3-3-3-3--3-3-3-3-3-3-|
                Omae wa                         subete o      

e|--------------------------------|
B|--------------------------------|
G|--------------------------------|
D|--------------------------------| 
A|--7--7-7-7-7-7-7-7--7-7-7-7-7-7-|
E|--5--5-5-5-5-5-5-5--5-5-5-5-5-5-|
   ushinatta 

            
e|------------------|
B|------------------|
G|------------------|
D|-----7----7----7--|
A|------------------|
E|--5---------------|

G|  3        5        2      7
D|  3        5        2      7 
A|  1        3        0      5 
    Karada tsuranuku sakebi de 

G|  3              5
D|  3              5
A|  1              3
    Omae no kokoro kowashite yaru



INTERSEÇÃO:

e|-----------------|-----------------|-----------------|---------------|
B|--6-----6--5--8--|--6-----6--5--8--|--6-----6--5--8--|---------------|
G|--7-----7--5--9--|--7-----7--5--9--|--7-----7--5--9--|--3---5--3--5--|
D|-----------------|-----------------|-----------------|--3---5--3--5--|
A|-----------------|-----------------|-----------------|---------------|
E|-----------------|-----------------|-----------------|---------------|

e|-----------------|-----------------|-----------------|---------------|
B|--6-----6--5--8--|--6-----6--5--8--|--6-----6--5--8--|---------------|
G|--7-----7--5--9--|--7-----7--5--9--|--7-----7--5--9--|--3---5--3--5--|
D|-----------------|-----------------|-----------------|--3---5--3--5--|
A|-----------------|-----------------|-----------------|---------------|
E|-----------------|-----------------|-----------------|---------------|

VERSO:

G|  7            3                        5               3      2
D|  7            3                        5               3      2
A|  5            1                        3               1      0
    Sabi-tsutai kotoba nage-sutete Harisakeru kokoro o toki-hanate

G| 5  7                        3      5                  7           x  7  x  x  7    5
D| 5  7                        3      5                  7           x  7  x  x  7    5
A| 3  5                        1      3                  5           x  5  x  x  5    3
      Furishikiru ame ni se wo mukete Ikuzuku yatsura ni kotoba wa nai


PONTE:

G|  3       5     2    7
D|  3       5     2    7 
A|  1       3     0    5 
    Umoreta toki tomadou  

e|-----------|--------------------------------|--------------------------------|
B|-----------|--------------------------------|--------------------------------|
G|-----------|--------------------------------|--------------------------------|
D|-----------|--------------------------------|--------------------------------|
A|--3--------|--5--5-5-5-5-5-5-5--5-5-5-5-5-5-|--5--5-5-5-5-5-5-5--5-5-5-5-5-5-|
E|-----6--5--|--3--3-3-3-3-3-3-3--3-3-3-3-3-3-|--3--3-3-3-3-3-3-3--3-3-3-3-3-3-|
                Omae wa                         akumo o      

e|--------------------------------|
B|--------------------------------|
G|--------------------------------|
D|--------------------------------| 
A|--7--7-7-7-7-7-7-7--7-7-7-7-7-7-|
E|--5--5-5-5-5-5-5-5--5-5-5-5-5-5-|
   samayô 

            
e|-----------------------|
B|-----------------------|
G|-----------------------|
D|---7--7----7--7-----7--|
A|-----------------------|
E|-----------------------|

G|  3      5        2        7
D|  3      5        2        7 
A|  1      3        0        5 
    Chi no kifuruwasu noise de 

G|  3              5
D|  3              5
A|  1              3
    Omae no kokoro kowashite yaru


REFRÃO:

G|  7                3                5              7   x  7  7    7    5
D|  7                3                5              7   x  7  7    7    5
A|  5                1                3              5   x  5  5    5    3  
    X! Kanjite miro  X! Sakende miro  X! Subete nugisutero

G|  7                3                5              7   5
D|  7                3                5              7   5
A|  5                1                3              5   3  
    X! kanjite miro  X! Sakende miro  X! Kokoro moyase

e|------------------|
B|------------------|
G|--10------9----5--|
D|--10------9----5--|
A|---8------7----3--|
E|------------------|


SOLO PATA:

|----------------------------------|----------------------------------|
|----------------------------------|----------------------------------|
|----------------------------------|----------------------------------|
|----------------------------------|--------------------------2-2-2-2-|
|--5-5-5-5-5-5-5-5-5-5-5-5-5-5-5-5-|--5-5-5-5-5-5-5-5-5-5-5-5-0-0-0-0-|
|--3-3-3-3-3-3-3-3-3-3-3-3-3-3-3-3-|--3-3-3-3-3-3-3-3-3-3-3-3---------|

|----------------------------------|----------------------------|
|----------------------------------|----------------------------|
|----------------------------------|---------------------5------|
|--3-3-3-3-3-3-3-3-3-3-3-3-3-3-3-3-|---------------------5------|
|--1-1-1-1-1-1-1-1-1-1-1-1-1-1-1-1-|--3-3-3-3-3-3-3-3-3--3------|
|----------------------------------|--1-1-1-1-1-1-1-1-1---------|

|----------------------|
|----------------------|
|--7--------5-------7--|
|--7--------5-------7--|
|--5--------3-------5--|
|----------------------|

SOLO HIDE:

|-----------------------15--18p-15----15-20p-15----15-18p-15----15-|
|--18------18------18b-------------18-----------18-----------18----|
|------------------------------------------------------------------|
|------------------------------------------------------------------|
|------------------------------------------------------------------|
|------------------------------------------------------------------|


|--20p-15----15-18p-15----15-15----17----|
|---------18-----------18----------------|
|----------------------------------------|
|----------------------------------------|
|----------------------------------------|
|----------------------------------------|

|--18-17-15----17-15-------15----------------------|
|-----------18-------18-17----18-17-15-18-17-15----|
|-----------------------------------------------17-|
|--------------------------------------------------|
|--------------------------------------------------|
|--------------------------------------------------|

|-------------------------------------|----------------------|
|-------------------------------------|-----------6----5--6--|
|--15-14-------14---------------------|--7-------------------|
|--------17-15----17-15-14-14h-15-14--|----------------------|
|-------------------------------------|----------------------|
|-------------------------------------|----------------------|

|--------------------------------|
|-------5--6--8----6--5---6-5----|
|----7------------------------7--|
|--------------------------------|
|--------------------------------|
|--------------------------------|

|--18-17-15----------------------------------------|--------------------------|
|-----------18-17-15-------------------------------|--------------------------|
|--------------------17-15-14----------------------|--3--------3----2----3----|
|-----------------------------17-15-14-------------|--------------------------|
|--------------------------------------17-15-13-12-|--------------------------|
|--------------------------------------------------|--------------------------|

|--------------------------|--------------------------|-------------------|
|--------------------------|--------------------------|-------------------|
|--5--------5----4----3----|--2--------2----1----2----|--7----------------|
|--------------------------|--------------------------|-------------------|
|--------------------------|--------------------------|-------------------|
|--------------------------|--------------------------|-------------------|

|------------------------|------------------------|------------------------|
|------------------------|------------------------|------------------------|
|-----3----2-----2----3--|-----3----2-----2----3--|--2--5----3--2--3----5--|
|--5----------5----------|--5----------5----------|------------------------|
|------------------------|------------------------|------------------------|
|------------------------|------------------------|------------------------|

|------------------------|--------------------------|--------------------------|
|------------------------|--------------------------|-----------5--------------|
|--2--5----3--2--3----5--|--3--------3----2----3----|--5-------------7----5----|
|------------------------|--------------------------|--------------------------|
|------------------------|--------------------------|--------------------------|
|------------------------|--------------------------|--------------------------|

|------------------------------|
|------------------------------|
|---------------------------7--|
|--7--------7----6----7--------|
|------------------------------|
|------------------------------|
  
|---------------------------------|---------------------------------|
|---------------------------------|---------------------------------|
|--------------------------9--10--|--------------------------9--10--|
|----------10--x-x-12--x-x--------|----------10--x-x-12--x-x--------|
|--13--x-x------------------------|--13--x-x------------------------|
|---------------------------------|---------------------------------|

|---------------------------------|--------------------------8--9--10--|
|---------------------------------|----------10--x-x-11--x-x-----------|
|------------------9--x-x-10--x-x-|--12--x-x---------------------------|
|--10--x-x-12--x-x----------------|------------------------------------|
|---------------------------------|------------------------------------|
|---------------------------------|------------------------------------|

INTERSEÇÃO:

|-----5--------------------|-----5--------------------|
|--------6--8--5--6-----5--|--------6--8--5--6-----5--|
|--7-----------------7-----|--7-----------------7-----|
|--------------------------|--------------------------|
|--------------------------|--------------------------|
|--------------------------|--------------------------|
 
|--------------------------|--------------------------|
|-----5-----6--5--6-----5--|-----8--6--8--5--8-----5--|
|--7-----7-----------7-----|--5-----------------7-----|
|--------------------------|--------------------------|
|--------------------------|--------------------------|
|--------------------------|--------------------------|

|--------------------------|-----5--------------------|
|-----8--------5--5--6--8--|--------6--8--5--6-----5--|
|--5-----5--7--------------|--7-----------------7-----|
|--------------------------|--------------------------|
|--------------------------|--------------------------|
|--------------------------|--------------------------|

|--------------------------|--5-----------------------|
|--------------------------|-----6--8--5--6-----5-----|
|--5--7-----5--------------|-----------------7-----6--|
|--------7-----5--7-----5--|--------------------------|
|--------------------8-----|--------------------------|
|--------------------------|--------------------------|

|-----5--------------------|--------5-----------------|
|--------6--8--5--6-----5--|-----------6--8--5--6-----|
|--7-----------------7-----|--6--7-----------------7--|
|--------------------------|--------------------------|
|--------------------------|--------------------------|
|--------------------------|--------------------------|

|-----------5--------------|--------------5-----------|
|--5-----------6--8--5--6--|-----5-----------6--8--5--|
|-----6--7-----------------|--7-----6--7--------------|
|--------------------------|--------------------------|
|--------------------------|--------------------------|
|--------------------------|--------------------------|

|-----------------5--------|--------------------5-----|
|--6-----5-----------6--8--|--5--6-----5-----------6--|
|-----7-----6--7-----------|--------7-----6--7--------|
|--------------------------|--------------------------|
|--------------------------|--------------------------|
|--------------------------|--------------------------|

|--------------------------|
|--8--5--6-----5-----------|
|-----------7-----6--7--6--|
|--------------------------|
|--------------------------|
|--------------------------|


REFRÃO:

G|  7                3                5              7   x  7  7    7    5
D|  7                3                5              7   x  7  7    7    5
A|  5                1                3              5   x  5  5    5    3  
    X! Kanjite miro  X! Sakende miro  X! Subete nugisutero

G|  7                3                5 
D|  7                3                5
A|  5                1                3
    X! kanjite miro  X! Sakende miro  X! Kokoro moyase

|--x-x-x-x-5--x-x-x-x-5--x-x-x-x-|
|--x-x-x-x-6--x-x-x-x-6--x-x-x-x-|
|--------------------------------|
|--------------------------------|
|--------------------------------|
|--------------------------------|

|--5--x-x-x-x-x-x-x--x--x--x--|
|--6--x-x-x-x-x-x-x--x--x--x--|
|-----------------------------|
|-----------------------------|
|-----------------------------|
|-----------------------------|

PONTE:

G|  3        5     2      7
D|  3        5     2      7 
A|  1        3     0      5 
    Midareta ai ni nagasare

e|-----------|--------------------------------|--------------------------------|
B|-----------|--------------------------------|--------------------------------|
G|-----------|--------------------------------|--------------------------------|
D|-----------|--------------------------------|--------------------------------|
A|--3--------|--5--5-5-5-5-5-5-5--5-5-5-5-5-5-|--5--5-5-5-5-5-5-5--5-5-5-5-5-5-|
E|-----6--5--|--3--3-3-3-3-3-3-3--3-3-3-3-3-3-|--3--3-3-3-3-3-3-3--3-3-3-3-3-3-|
                Omae wa                         subete o      

e|--------------------------------|
B|--------------------------------|
G|--------------------------------|
D|--------------------------------| 
A|--7--7-7-7-7-7-7-7--7-7-7-7-7-7-|
E|--5--5-5-5-5-5-5-5--5-5-5-5-5-5-|
   ushinatta 

e|-----------------------|
B|-----------------------|
G|-----------------------|
D|---7--7----7--7-----7--|
A|-----------------------|
E|-----------------------|

G|  3        5        2      7
D|  3        5        2      7 
A|  1        3        0      5 
    Karada tsuranuku sakebi de 

G|  3              5
D|  3              5
A|  1              3
    Omae no kokoro kowashite yaru


REFRÃO:

G|  7                3                5              7   x  7  7    7    5
D|  7                3                5              7   x  7  7    7    5
A|  5                1                3              5   x  5  5    5    3  
    X! Kanjite miro  X! Sakende miro  X! Subete nugisutero

G|  7                3                5 
D|  7                3                5
A|  5                1                3
    X! kanjite miro  X! Sakende miro  X! Kokoro moyase

G|  7                3                5              7   x  7  7    7    5
D|  7                3                5              7   x  7  7    7    5
A|  5                1                3              5   x  5  5    5    3  
    X! Kanjite miro  X! Sakende miro  X! Subete nugisutero

G|  7                3                5 
D|  7                3                5
A|  5                1                3
    X! kanjite miro  X! Sakende miro  X! Kokoro moyase


INTERSEÇÃO:

e|-----------------|-----------------|-----------------|---------------|
B|--6-----6--5--8--|--6-----6--5--8--|--6-----6--5--8--|---------------|
G|--7-----7--5--9--|--7-----7--5--9--|--7-----7--5--9--|--3---5--3--5--|
D|-----------------|-----------------|-----------------|--3---5--3--5--|
A|-----------------|-----------------|-----------------|---------------|
E|-----------------|-----------------|-----------------|---------------|

e|-----------------|-----------------|-----------------|---------------|-----|
B|--6-----6--5--8--|--6-----6--5--8--|--6-----6--5--8--|---------------|-----|
G|--7-----7--5--9--|--7-----7--5--9--|--7-----7--5--9--|--3---5--3--5--|-----|
D|-----------------|-----------------|-----------------|--3---5--3--5--|--2--|
A|-----------------|-----------------|-----------------|---------------|--0--|
E|-----------------|-----------------|-----------------|---------------|-----|


(== PAUSA ==)


REFRÃO:

G|  7                3                5              7   x  7  7    7    5
D|  7                3                5              7   x  7  7    7    5
A|  5                1                3              5   x  5  5    5    3  
    X! Kanjite miro  X! Sakende miro  X! Subete nugisutero

G|  7                3                5 
D|  7                3                5
A|  5                1                3
    X! kanjite miro  X! Sakende miro  X! Kokoro moyase

|---------------------|
|---------------------|
|--7--------5------7--|
|--7--------5------7--|
|---------------------|
|---------------------|


SOLO FINAL:

|------------12g12b--------12----------------10----|
|--------------------------------11----13----------|
|--10----------------------------------------------|
|--------------------------------------------------|
|--------------------------------------------------|
|--------------------------------------------------|

|--------------------------------------------------12g12b--------|
|--10--------11--------10----------------------------------------|
|----------------------------------------10----------------------|
|----------------------------------------------------------------|
|----------------------------------------------------------------|
|----------------------------------------------------------------|

|--12----15----13----12----13------------------------------------|
|----------------------------------------------------10----------|
|----------------------------------------------------------12----|
|----------------------------------------------------------------|
|----------------------------------------------------------------|
|----------------------------------------------------------------|

|------------12g12b--------12----15----13----12----13--------15------17--|
|------------------------------------------------------------------------|
|--10--------------------------------------------------------------------|
|------------------------------------------------------------------------|
|------------------------------------------------------------------------|
|------------------------------------------------------------------------|

(==RASPE A PALHETA NAS CORDAS==)

|-----------------------------|-----------------|
|-----------------------------|-----------------|
|--3-----5--------5--4--5--6--|--7-----------7--|
|--3-----5--------5--4--5--6--|--7-----------7--|
|--1-----3--------3--2--3--4--|--5-----------5--|
|-----------------------------|-----------------|
reproducciones 151
Acordes para:
    Composição: Hitomi Shiratori Colaboración y revision:
    • Pedro Sant'Anna
    • Rafael Vasconcelos

    0 comentarios

    mostrar más comentarios

    ¿Conseguiste tocar?

    0 tocaron 0 aún no

    ¡Graba un vídeo tocando X y envianoslo!

    00:00 / 00:00
    outros vídeos desta música
    repetir qualidade Automático
    Outros vídeos desta música
    00:00 / 00:00
    Automático
    OK