Cifra Club

Nota Dez

Xand Avião

Tablatura: Principal (guitarra)
Tom: F
[Intro] Dm  Bb  C  Eb  Gm  F

E|----------------------------------------------------|
B|-6---6---6---5-6-7-8----6---6---6---5-6-7-8---------|
G|---7---7---7--------------7---7---7-----------------|
D|----------------------------------------------------|
A|----------------------------------------------------|
E|----------------------------------------------------|

E|----------------------------------------------------|
B|-5---5---5----5-6-----------------------------------|
G|---5---5----7-----7-5-3-------2h3p2---2-5/7~--------|
D|--------------------------3-5-------5---------------|
A|----------------------------------------------------|
E|----------------------------------------------------|

E|----------------------------------------------------|
B|---5-6p5--------------------------------------------|
G|-7-------7-5-------5--------------------------------|
D|-------------7---7---7~-----------------------------|
A|---------------8------------------------------------|
E|----------------------------------------------------|

[Primeira Parte]

 Dm                   Bb
Beijo ardente como o sol
 C                            Eb
Teu abraço quente é o meu lençol
   Gm                       F
O tempo aqui não passa sem você
 Dm                     Bb
Custe o que custar te espero
  C                       Eb
Quando te encontrar, só quero
 Gm                        F
Paz a vida inteira pra te amar

[Segunda Parte]

 Dm                   Bb
Onde a vida me levar, eu vou
  C                     Eb
Querer sempre ter você, amor
 Gm                    F
Do meu lado seja onde for
 Dm                       Bb
Tudo o que você sente ao me ter
    C                     Eb
Também sinto amor como você
Gm                        F
E o resto só o tempo vai dizer

[Refrão]

 Dm                    Bb
Nosso chamego é bom demais
                          C
Adoro o amor que a gente faz
                 Eb
Com voce é especial
                 Gm
Valsa vira carnaval
                         F
Com voce é nota 10, Não tem igual

 Dm
Se quer me ter
           Bb
Tu vai me ter
                       C
Que eu também to como você
                Eb
O nosso amor pede bis
                  Gm
Planta morre sem raiz
              F
Bom mesmo é amar e ser feliz

( Dm  Bb  C  Eb  Gm  F )
( Dm  Bb  C  Eb  Gm  F )

[Terceira Parte]

 Dm                   Bb
Onde a vida me levar, eu vou
  C                     Eb
Querer sempre ter você, amor
 Gm                    F
Do meu lado seja onde for
 Dm                       Bb
Tudo o que você sente ao me ter
    C                     Eb
Também sinto amor como você
Gm                        F
E o resto só o tempo vai dizer

[Refrão]

 Dm                    Bb
Nosso chamego é bom demais
                          C
Adoro o amor que a gente faz
                 Eb
Com voce é especial
                 Gm
Valsa vira carnaval
                         F
Com voce é nota 10, Não tem igual

 Dm
Se quer me ter
           Bb
Tu vai me ter
                       C
Que eu também to como você
                Eb
O nosso amor pede bis
                  Gm
Planta morre sem raiz
              F
Bom mesmo é amar e ser feliz

 Dm                    Bb
Nosso chamego é bom demais
                          C
Adoro o amor que a gente faz
                 Eb
Com voce é especial
                 Gm
Valsa vira carnaval
                         F
Com voce é nota 10, Não tem igual

 Dm
Se quer me ter
           Bb
Tu vai me ter
                       C
Que eu também to como você
                Eb
O nosso amor pede bis
                  Gm
Planta morre sem raiz
              F
Bom mesmo é amar e ser feliz

[Final] Dm  Bb  C  Eb  Gm  F

E|----------------------------------------------------|
B|-6---6---6---5-6-7-8----6---6---6---5-6-7-8---------|
G|---7---7---7--------------7---7---7-----------------|
D|----------------------------------------------------|
A|----------------------------------------------------|
E|----------------------------------------------------|

E|----------------------------------------------------|
B|-5---5---5----5-6-----------------------------------|
G|---5---5----7-----7-5-3-------2h3p2---2-5/7~--------|
D|--------------------------3-5-------5---------------|
A|----------------------------------------------------|
E|----------------------------------------------------|

E|----------------------------------------------------|
B|---5-6p5--------------------------------------------|
G|-7-------7-5-------5--------------------------------|
D|-------------7---7---7~-----------------------------|
A|---------------8------------------------------------|
E|----------------------------------------------------|
reproducciones 74
Acordes para:
    Composição: Paulynho Paixão Colaboración y revision:
    • Getúlio Vasconcelos

    0 comentarios

    mostrar más comentarios

    ¿Conseguiste tocar?

    6 tocaron 1 aún no

    ¡Graba un vídeo tocando Nota Dez y envianoslo!

    00:00 / 00:00
    outros vídeos desta música
    repetir qualidade Automático
    Outros vídeos desta música
    00:00 / 00:00
    Automático
    OK