Cifra Club

Se Mordendo de Raiva

Xand Avião

Cifrado: Principal (guitarra y guitarra eléctrica)
tono: G
[Intro] Am  C  Em  D  

[Solo]

Parte 1
E|----------------------------------------------------------------------|
B|----------------------------------------------------------------------|
G|----------------------------------------------------------------------|
D|-10-9-7---7-9-10-9-7---7-9-10-9-7---7-9-10-9-7------------------------|
A|----------7----------------7---------------7---------------7~---------|
E|----------------------------------------------------------------------|

Parte 2
E|----------------------------------------------------------------------|
B|----------------------------------------------------------------------|
G|-9-7-5-0-5-7-9-7-5-0-5-7-9-7-5-0-5-7-9-7--5--0~-----------------------|
D|----------------------------------------------------------------------|
A|----------------------------------------------------------------------|
E|----------------------------------------------------------------------|

Parte 3
E|----------------------------------------------------------------------|
B|-8-7-5-0-5-7-8-7-5-0-5-7-8-7-5-0-5-7-8-7-5-7-8-12-10~-----------------|
G|----------------------------------------------------------------------|
D|----------------------------------------------------------------------|
A|----------------------------------------------------------------------|
E|----------------------------------------------------------------------|

E|----------------------------------------------------------------------|
B|-(12)---(10)---(5)---(3)---(5)----------------------------------------|
G|-(12)---(11)---(0)----------(0)---------------------------------------|
D|------------------------(5)-------------------------------------------|
A|----------------------------------------------------------------------|
E|----------------------------------------------------------------------|

[Primeira Parte]

   Em
Enquanto uns apostam, a gente ganha
                                   D
Enquanto o povo fala, a gente ama na cama
                        A
Não tem espaço para maldade
C              D                 Em
O mundo tá querendo afastar nós dois
                   D                C
E o nosso amor tá cada vez mais forte
                  D              Am
Tamo calando a boca de quem duvidou
                            B  B7
A gente junto tá dando uma sorte
 Em
Quem disse que a gente não ia dar certo
                       C
Que nós dois não combinava

[Refrão]

                   G
Tá se mordendo de raiva
                   D
Tá se mordendo de raiva
 Em
Quem disse que era só mais um lancinho
                      C
De uma semana não passava
                 G
Tá se mordendo de raiva
                   D
Tá se mordendo de raiva
 Am                     D
Quem torceu contra nós dois
             Am  C  Em  D
Tomou na cara
00:00 / 00:00
Otros videos de esta canción
Repetir
Otros videos de esta canción
Composición de Junior Gomes / Renno Poeta / Tierry
Colaboración y revisión:
  • Gabriel Silva
  • Tutubass
  • Paulo Junior
1.603 vistas
    • ½ Tono
    • A
    • Bb
    • B
    • C
    • Db
    • D
    • Eb
    • E
    • F
    • F#
    • G
    • Ab
  • Agregar a la lista

    0 comentarios

    Ver todos los comentarios

    ¿Lograste tocar?

    6 Tocaron 5 Aún no

    ¡Graba un video tocando Se Mordendo de Raiva y envíanoslo!

    00:00 / 00:00
    OK