Cifra Club

Beautiful Day

Xavier Rudd

Tablatura: Principal (guitarra)
Tom: A
it live some times. I think it's going to be on his new record..
It's probably not 100% correct, but it sounds good to me. The picking-thing is probably 
correct, but I don't know if he picks it 1 or 2 times.
Enjoy


Intro:
e ---x----9------x----x----8------x----x----7------x----5----5--|
B ---x----9------x----x----8------x----x----7------x----5----5--|
G --10---10-----10---10---10------9----9----9------6----6----6--|   X2
D ---x---11------x----x---11------x----x---10------x----7----7--|
A ---x---11------x----x---11------x----x---10------x----7----7--|
E ---9----9------8----8----8------7----7----7------5----5----5--|


Verse 1:
e ---x----9------x----x----8------x----x----7------x----5----5--|
B ---x----9------x----x----8------x----x----7------x----5----5--|
G --10---10-----10---10---10------9----9----9------6----6----6--|   X4
D ---x---11------x----x---11------x----x---10------x----7----7--|
A ---x---11------x----x---11------x----x---10------x----7----7--|
E ---9----9------8----8----8------7----7----7------5----5----5--|


Chourse 1:
e ---x----5------x----5------x----x----3------x----5----5--|
B ---x----6------x----5------x----x----3------x----5----5--|
G ---7----7------6----6------4----4----4------6----6----6--|       X4
D ---x----7------x----7------x----x----5------x----7----7--|
A ---x----5------x----7------x----x----5------x----7----7--|
E ---5----5------5----5------3----3----3------5----5----5--|


Repet Intro:
e ---x----9------x----x----8------x----x----7------x----5----5--|
B ---x----9------x----x----8------x----x----7------x----5----5--|
G --10---10-----10---10---10------9----9----9------6----6----6--|   X2
D ---x---11------x----x---11------x----x---10------x----7----7--|
A ---x---11------x----x---11------x----x---10------x----7----7--|
E ---9----9------8----8----8------7----7----7------5----5----5--|


Verse 2:
e ---x----9------x----x----8------x----x----7------x----5----5--|
B ---x----9------x----x----8------x----x----7------x----5----5--|
G --10---10-----10---10---10------9----9----9------6----6----6--|   X4
D ---x---11------x----x---11------x----x---10------x----7----7--|
A ---x---11------x----x---11------x----x---10------x----7----7--|
E ---9----9------8----8----8------7----7----7------5----5----5--|


Chourse 2:
e ---x----5------x----5------x----x----3------x----5----5--|
B ---x----6------x----5------x----x----3------x----5----5--|
G ---7----7------6----6------4----4----4------6----6----6--|       X8
D ---x----7------x----7------x----x----5------x----7----7--|
A ---x----5------x----7------x----x----5------x----7----7--|
E ---5----5------5----5------3----3----3------5----5----5--|


Verse 3:
e ---x----9------x----x----8------x----x----7------x----5----5--|
B ---x----9------x----x----8------x----x----7------x----5----5--|
G --10---10-----10---10---10------9----9----9------6----6----6--|   X1
D ---x---11------x----x---11------x----x---10------x----7----7--|
A ---x---11------x----x---11------x----x---10------x----7----7--|
E ---9----9------8----8----8------7----7----7------5----5----5--|


Ends on:
e ---x--
B ---x--
G --10--
D ---x--
A ---x--
E ---9--
reproducciones 24
Acordes para:

    0 comentarios

    mostrar más comentarios

    ¿Conseguiste tocar?

    0 tocaron 0 aún no

    ¡Graba un vídeo tocando Beautiful Day y envianoslo!

    00:00 / 00:00
    outros vídeos desta música
    repetir qualidade Automático
    Outros vídeos desta música
    00:00 / 00:00
    Automático
    OK