Cifra Club

Fortune Teller

Xavier Rudd

Tablatura: Principal (guitarra)
Tom: D
From the album "Food in the Belly" released 2005

Tabbed by: Luke Marsh
Tuning: Standard (EADGBE)


Intro (Clean Acoustic) (with Didgeridoo)
E|-----------------------------------------------|
B|-----------------------------------------------|
G|-----------------------------------------------|
D|--2---4h5p4p0------------------x-x---5-x----5--|
A|---2----------5p0-5-5/7---5-4--x-x---5-x----5--|
E|---0--------------------0------x-x-0-3-x-0--3--|

Repeat 4x
Didgeridoo fades out just before last time through (hold last G)

Verse 1 (Clean Acoustic)
Starts after "Well I see"
E|-----------------------------------------------|
B|-----------------------------------------------|
G|-----------------------------------------------|
D|--2---4h5p4p0------------------x-x---5-x----5--|
A|---2----------5p0-5-5/7---5-4--x-x---5-x----5--|
E|---0--------------------0------x-x-0-3-x-0--3--|

Repeat 4x
Hold last G on last time through

Verse 2 (Clean Acoustic)
Starts after "So much time"
E|------------------------------------------------|
B|------------------------------------------------|
G|------------------------------------------------|
D|--2---4h5p4p0-------------------x-x---5-x----5--|
A|---2-----------5p0-5-5/7---5-4--x-x---5-x----5--|
E|---0---------------------0------x-x-0-3-x-0--3--|

Repeat 4x (this time don't hold the G, go straight into next part)

Pre-Chorus (Slightly distorted Acoustic)
"Need to be the one"
          |----------------------PM----------------------|
E|-----------------------------------------------------------------------|
B|-----------------------------------------------------------------------|
G|-----------------------------------------------------------------------|
D|---------4-5--x-x----------4-5--x-x----------4-5--x-x----7--0-5-4-5-4--|
A|-----x-x------x-x------x-x------x-x------x-x------x-x------------------|
E|--0--x-x------x-x-3-0--x-x------x-x-3-0--x-x------x-x-3----------------|

Play 2x then into...

Chorus (Slightly distorted Acoustic)  1:08
"This is my fortune"
E|---------------------------------------------|
B|---------------------------------------------|
G|---------------------------------------------|
D|--2---4h5p4p0-------------------------5-x-5--|
A|---2-----------5p0-5-5/7---5-4--------5-x-5--|
E|---0---------------------0-----0-0--0-3-x-3--|

Play 4x and hold the last G


Order
--------
Intro (4x)
Verse 1 (4x)
Verse 2 (4x)
Pre-Chorus (2x)
Chorus (4x)
Verse 1 (4x)
Pre-Chorus (2x)
Chorus (4x)
Pre-Chorus with Didgeridoo instead of vocals (4x)
Chorus still with Didgeridoo instead of vocals (4x)
Pre-Chorus (1x)
Chorus (4x)


Lyrics (from album booklet)
--------
Well I see because this is my window
Your questions with every move I make
So much time is filled up with answers
To why my feet will always hold their ground

Need to be the one
Redefine yourself
See it in your mind
This is all a game
Do it all again
Redefine yourself
See it in your mind
This is all a game

This is my fortune

Well I see with the sun in my window
That questions will sometimes remain

This is my fortune


That's the entire song... I figured it all out myself and didn't look at any tab books
so if you find any mistakes please tell me either in a comment on the tab or email me
at *.
reproducciones 30
Acordes para:
    Composição: Xavier Rudd

    0 comentarios

    mostrar más comentarios

    ¿Conseguiste tocar?

    0 tocaron 0 aún no

    ¡Graba un vídeo tocando Fortune Teller y envianoslo!

    00:00 / 00:00
    outros vídeos desta música
    repetir qualidade Automático
    Outros vídeos desta música
    00:00 / 00:00
    Automático
    OK