Cifra Club

No Women No Cry

Xavier Rudd

Tablatura: Principal (guitarra)
Tom: E
Intro-
-----x---x---x---x-------x---------x-------------|
-----x---x---x---x-------x---------x-------------|
-----x---x---x---x-------x---------x-------------|
-2s4-x-7-x-9-x-5-x-0h2s4-x-5-4-2-0-x-------------|
-----x-7-x-9-x-5-x-------x---------x-0h2-3-4-----|
-----x---x---x---x-------x---------x-------------|

-------x---x---x---x-------x---------x-------------|
-------x---x---x---x-------x---------x-------------|
-------x---x---x---x-------x---------x-------------|
-0h2s4-x-7-x-9-x-5-x-0h2s4-x-5-4-2-0-x-------------|
-------x-7-x-9-x-5-x-------x---------x-0h2-3-4-----|
-------x---x---x---x-------x---------x-------------| X3

Chorus-
I remember when we used to sing...
---x---x---x---x-|
---x---x---x---x-|
---x---x---x---x-|
-0-x-7-x-9-x-5-x-|
-0-x-7-x-9-x-5-x-|
---x---x---x---x-| X7

then go like this-
---x---x------------|
---x---x------------|
---x---x------------|
-0-x-7-x-9----------|
-0-x-7-x-9--0h2-3-4-|
---x---x------------|

Verse-
-------x---x---x---x-------x---------x-------------|
-------x---x---x---x-------x---------x-------------|
-------x---x---x---x-------x---------x-------------|
-0h2s4-x-7-x-9-x-5-x-0h2s4-x-5-4-2-0-x-------------|
-------x-7-x-9-x-5-x-------x---------x-0h2-3-4-----|
-------x---x---x---x-------x---------x-------------|X2

-0h2s4-x-7-x-9-x-5-x-0h2s4-x-5s4s2p0-x-------------|
-------x---x---x---x-------x---------x-0h2-3-4-----|
-------x---x---x---x-------x---------x-------------|
-------x---x---x---x-------x---------x-------------|
-------x---x---x---x-------x---------x-------------|
-------x---x---x---x-------x---------x-------------|

-0h2s4-x-7-x-9-x-5-x-0h2s4-x-5s4s2p0-x-------------|
-------x---x---x---x-------x---------x-------------|
-------x---x---x---x-------x---------x-------------|
-------x---x---x---x-------x---------x-------------|
-------x---x---x---x-------x---------x-0h2-3-4-----|
-------x---x---x---x-------x---------x-------------|

Harmonica comes in...
-------x---x---x---x-------x---------x-------------|
-------x---x---x---x-------x---------x-------------|
-------x---x---x---x-------x---------x-------------|
-0h2s4-x-7-x-9-x-5-x-0h2s4-x-5-4-2-0-x-------------|
-------x-7-x-9-x-5-x-------x---------x-0h2-3-4-----|
-------x---x---x---x-------x---------x-------------|X4

Chorus-
I remember when we used to sing...
---x---x---x---x-|
---x---x---x---x-|
---x---x---x---x-|
-0-x-7-x-9-x-5-x-|
-0-x-7-x-9-x-5-x-|
---x---x---x---x-| X7

Then on the 8th time go like this-
---x---x----|
---x---x----|
---x---x----|
-0-x-7-x-9~-|
-0-x-7-x-9~-|
---x---x----|

And everything's gonna be alright...
---x---x---x---x-|
---x---x---x---x-|
---x---x---x---x-|
-0-x-7-x-9-x-5-x-|
-0-x-7-x-9-x-5-x-|
---x---x---x---x-|X5

Outro-
----------------x-------------|
----------------x-------------|
----------------x-------------|
-0h2s4--5-4-2-0-x-------------|
----------------x-0h2-3-4-----|

-------x---x---x---x-------x---------|
-------x---x---x---x-------x---------|
-------x---x---x---x-------x---------|
-0h2s4-x-7-x-9-x-5-x-0h2s4-x-5-4-2-0-|
-------x-7-x-9-x-5-x-------x---------|
-------x---x---x---x-------x---------|
reproducciones 62
Acordes para:
    Colaboración y revision:
    • Guilherme Yukishigue

    0 comentarios

    mostrar más comentarios

    ¿Conseguiste tocar?

    0 tocaron 0 aún no

    ¡Graba un vídeo tocando No Women No Cry y envianoslo!

    00:00 / 00:00
    outros vídeos desta música
    repetir qualidade Automático
    Outros vídeos desta música
    00:00 / 00:00
    Automático
    OK