Cifra Club

Spirit Bird

Xavier Rudd

Tablatura: Principal (guitarra)
Tom: C
1° Dedilhado

Dedilhado inicial da música
      F:
E|-1-----------1-----------3--------1----1----------------------------------|
B|----1-----------1-----------1-------------1-------------------------------|
G|-------2-----------2-----------2-------------2----------------------------|
D|-3--------3-----------3--3--------3----3----------------------------------|
A|--------------------------------------------------------------------------|
E|--------------------------------------------------------------------------|

    Am:
E|-------------0------------------------------------------------------------|
B|-1--------------2--------3--------1----1----------------------------------|
G|----2--------------2--------2-------------2-------------------------------|
D|-------2-----------------------2-------------2----------------------------|
A|-0--------0-----------0--0--------0----0----------------------------------|
E|--------------------------------------------------------------------------|

      C:
E|-------------0------------------------------------------------------------|
B|-1--------------1--------3--------1----1----------------------------------|
G|----0--------------0--------0-------------0-------------------------------|
D|-------2-----------------------2-------------2----------------------------|
A|-3--------3-----------3--3--------3----3----------------------------------|
E|--------------------------------------------------------------------------|

      G:
E|-------------3------------------------------------------------------------|
B|-0--------------0--------1--------1----3----------------------------------|
G|----0--------------0--------0-------------0-------------------------------|
D|-------0-----------------------0------------------------------------------|
A|--------------------------------------------------------------------------|
E|-3--------3-----------3--3--------3---------------------------------------|

Repete o 1° dedilhado até o inicio do canto!

2° Dedilhado

     F        Am     A4 Am C       G      C/E  G  F
E|-1------------------------------3--------------1--------------------------|
B|-1--------1-------3--1--1-------0--------1--3--1--------------------------|
G|-2--------2-------2--2--0-------0--------0--0--2--------------------------|
D|-3--------2-------2--2--2----------------2--0--3--------------------------|
A|----------0-------0--0--3-------------------------------------------------|
E|--------------------------------3--------3--3-----------------------------|


Começa o 2° dedilhado

F                           Am                                      c
Give it time and wonder why do what we can laugh and we cry and we sleep in
                                           G Am A4
your dust because we've seen this all before.
F                                  Am                 A4
Culture fades with tears and grace leaving us stunned hollow with shame we
       C/E                             G Am A4
have seen this all, seen this all before.

F                                  Am                     A4
Many tribes of a modern kind, doing brand new work, same spirit by side,
           C                                     G            Am A4
joining hearts and hand and ancestral twine, ancestral twine.
F                                    Am                    A4
Many tribes of a modern kind, doing brand new work, same spirit by side,
          C                                       G           Am A4
joining hearts and hand and ancestral twine, ancestral twine.

Inicia-se o 1° Dedilhado novamente

F         Am     C        G         F       Am      C        G
Slowly it fades. Slowly we fade, Slowly it fades. Slowly we fade

2°Dedilhado inicia-se novamente!

F            Am           C           G           F            Am             C           G
Emanayoyoyoyo Emanayoyoyo Emanayoyoyoyo Emanayoyoyo Emanayoyoyoyo Emanayoyoyo Emanayoyoyoyo Emanayoyoyo
F                                       Am                             C
Spirit bird she creaks and groans she knows she has, seen this all before she
                     G     Am A4
has, seen this all before.
F                                        Am            A4              C/E
Spirit bird she creaks and groans she knows she has, seen this all before she
                     G    Am   A4
has, seen this all before.

Novamente inicia-se o 1°Dedilhado

F             Am   C           G
Slowly it fades. Slowly you fade

Começa uma batida apenas para baixo com os mesmos acordes do 1° Dedilhado

       F                              Am                                   C
Soldier on soldier on my good country man. Keep fighting for your culture,
                             G
now keep fighting for your land.

                             F                                          Am
I know its been thousands of years and i feel your hurt and i know its wrong
                                                   C
and you feel youve been chained and broken and burned and those beautiful old
                       G                                               F
people those wise old souls have been ground down for far too long by that
                                  Am                               C
spineless man that greedy man that hearless man deceiving man government hand
                                   G                            F
taking blood and land taking blood and land and still they can but your
                                   Am                          C
dreaming and your warrior spirit lives on and it is so so so strong in the
                                       G
earth in the trees in the rocks in the water in your blood and in the air we

breath

         F                       Am                                   C
Soldier on soldier on my good country man, keep fighting for your children
                               G
now keep fighting for your land

F               Am                C                 G  F               Am                C                G
Slowly it fades,   slowly we fade   slowly you fade    Slowly it fades,   slowly we fade   slowly you fade

2° Dedilhado novamente

Depois de repetir uma vez o 2° dedilhado

Repete 1 vez o 1° dedilhado
                            F                                          Am
Give it time and we wonder why do what we can laugh and we cry and we sleep

in your dust because weve seen it all before
reproducciones 510
Acordes para:
    Composição: Xavier Rudd Colaboración y revision:
    • Moisés Borges
    • renan caique

    0 comentarios

    mostrar más comentarios

    ¿Conseguiste tocar?

    3 tocaron 0 aún no

    ¡Graba un vídeo tocando Spirit Bird y envianoslo!

    00:00 / 00:00
    outros vídeos desta música
    repetir qualidade Automático
    Outros vídeos desta música
    00:00 / 00:00
    Automático
    OK