Cifra Club

Where Do We Fit

Xavier Rudd

Tablatura: Principal (guitarra)
Tom: C
PLEASE NOTE- I did'nt create this tab, i got these from archives i found from  "xrtab" 
has shut down. I only put these tabs on to make it easy for people to find these tabs now 
the site has shut down. -Peace


---------------------------------
Tabbed by Mark Z - *

Played with light, free strumming.

Riff 1

e|--1--1--3--1--0----1--|--0--0--0--0--0----0-||
B|--1--1--1--1--0h1--1--|--1--1--3--1--0h1--1-||
G|--2--2--2--2--2----2--|--2--2--2--2--2----2-||
D|--3--3--3--3--3----3--|--2--2--2--2--2----2-||
A|----------------------|---------------------||
E|----------------------|---------------------||

Riff 2
e|--3--3--3--3--|--3--3--3--3--||
B|--1--1--1--1--|--0--0--0--0--||
G|--0--0--0--0--|--0--0--0--0--||
D|--2--2--2--2--|--0--0--0--0--||
A|--3--3--3--3--|--2--2--2--2--||
E|--0--0--0--0--|--3--3--3--3--||


Riff 3
e|--1--|--3--||
B|--1--|--0--||
G|--2--|--0--||
D|--3--|--0--||
A|--3--|--2--||
E|--1--|--3--||

Riff 4
e|--3--3--3--3--|--3--3--3--3--|--1--1--1--1--|--3--3--3--3--||
B|--3--3--3--3--|--3--3--3--3--|--1--1--1--1--|--3--3--3--3--||
G|--0--0--0--0--|--0--0--0--0--|--2--2--2--2--|--0--0--0--0--||
D|--2--2--2--2--|--0--0--0--0--|--3--3--3--3--|--0--0--0--0--||
A|--3--3--3--3--|--2--2--2--2--|--3--3--3--3--|--2--2--2--2--||
E|--------------|--3--3--3--3--|--1--1--1--1--|--3--3--3--3--||


Order
----------
Riff 1 X 3
Riff 2

Riff 1 X 3
Riff 2
Riff 3 X 6
Riff 4 X 2

Riff 1 X 3
Riff 2
Riff 3 X 6
Riff 4 Until end of song
reproducciones 10
Acordes para:

    0 comentarios

    mostrar más comentarios

    ¿Conseguiste tocar?

    0 tocaron 0 aún no

    ¡Graba un vídeo tocando Where Do We Fit y envianoslo!

    00:00 / 00:00
    outros vídeos desta música
    repetir qualidade Automático
    Outros vídeos desta música
    00:00 / 00:00
    Automático
    OK