Cifra Club

Making Plans For Nigel

Xtc

Cifrado: Principal (guitarra y guitarra eléctrica)
Selo Cifra Club: esta cifra foi revisada para atender aos critérios oficiais da nossa Equipe de Qualidade.
tono: F
E|-----------|
B|-----------|
G|-3-----3---|
D|-3--3--3--3|
A|-1--3--1--3|
E|----1-----1|

GUITAR 1: Verse
E|-------------|
B|-------------|
G|-14---14--10-|
D|-------------|
A|-------------|
E|-------------|
GUITAR 2: Verse
E|------------------------------------|
B|------------------------------------|
G|-----------5---5-----3---3-----3---3|
D|-3---3-----5---5-----3---3-----3---3|
A|-3---3-----3---3-----1---1-----1---1|
E|-1---1------------------------------|
GUITAR 1: Interlude
E|-----------------------|
B|-----------------------|
G|-12--14---12----14---12|
D|-----------------------|
A|-----------------------|
E|-----------------------|
Otros videos de esta canción
    78 exhibiciones
      • ½ Tono
      • A
      • Bb
      • B
      • C
      • Db
      • D
      • Eb
      • E
      • F
      • F#
      • G
      • Ab
    • Agregar a la lista

    Afinación de cifrado

    Afinador online

      OK