Cifra Club

Respectable Street

Xtc

Cifrado: Principal (guitarra y guitarra eléctrica)
Selo Cifra Club: esta cifra foi revisada para atender aos critérios oficiais da nossa Equipe de Qualidade.
tono: F#
E|---7-x---0-0-----|
B|---7-x---7-7-----|
G|---8-x---0-0-----|
D|---9-x---9-9-----|
A|-9-9-----8-8-----| (1x)
E|-7-7---9-9-9-----|
.|.^.V.^.V.^.v.....|

E|---7-----0-0-----|
B|---7-----7-7-----|
G|---8-----0-0-----|
D|---9-----9-9-----|
A|-9-9-----8-8-----| (2x)
E|-7-7---9-9-9-----|
.|.^.V...V.^.v.....|

E|---7-----0-0-----|
B|---7-----7-7-----|
G|-8-8-----0-0-----|
D|-9-9-----9-9-----| (1x)
A|-9-9-----8-8-----|
E|-7-7---9-9-9-----|
.|.^.V...V.^.v.....|

=================

Legend:

x = play muted string.

^ = downstroke.

V = upstroke.

=================

~~~~~~
Notes:
~~~~~~

How to play this: 
Barre the 7th fret for the B chord, using 
your pinky for 9 on the D string. When switching
to the C# chord:

1: Keep your Pinky Finger on the 9th Fret of the D String;
2: Move your Index Finger to the 7th Fret of the B String;
3: Move your Middle Finger to the 8th Fret of the A String;
4: Move your Ring Finger to the 9th Fret of the Low E String.

~~~~~~~~~~~~~~~~~~~~

C# Chord, Explained:

C# - F - B - G - F# - E
1st, 3rd, 7th, Flat 5, Sus 4, Minor 3rd.
Otros videos de esta canción
    10 exhibiciones
      • ½ Tono
      • A
      • Bb
      • B
      • C
      • Db
      • D
      • Eb
      • E
      • F
      • F#
      • G
      • Ab
    • Agregar a la lista

    Afinación de cifrado

    Afinador online

      OK