Cifra Club

Super Fuerte

Xtreme Kids

Cifrado: Principal (guitarra y guitarra eléctrica)
tono: C
E|------------------------------------------------------------|
B|------------------------------------------------------------|
G|------------------------------------------------------------|
D|--14p12---------14p12--14p12---------14p12--14p12-----------|
A|---------14p12----------------14p12----------------14p12----|
E|------------------------------------------------------------|

E|-----------------------------------------------------|
B|-----------------------------------------------------|
G|--12p9--------12p9--12p9--------12p9--12p9-----------|
D|--------12p9--------------12p9--------------12p9-----|
A|-----------------------------------------------------|
E|-----------------------------------------------------|

E|-------------------------------------------------------------|
B|-------------------------------------------------------------|
G|--14p12---------14p12--14p12---------14p12--14p12------------|
D|---------14p12----------------14p12----------------14p12-----|
A|-------------------------------------------------------------|
E|-------------------------------------------------------------|

E|------------------------------------------------17b19r17--15v--|
B|----------------------13p12----15v--15b17--15v-----------------|
G|--14p12-----16p14-----------12---------------------------------|
D|--------12--------14-------------------------------------------|
A|---------------------------------------------------------------|
E|---------------------------------------------------------------|

E|--15--14h15p14v--------------------------------|
B|-----------------15--------------------15------|
G|--------------------14-12-11-------/16----16v--|
D|-----------------------------12v---------------|
A|-----------------------------------------------|
E|-----------------------------------------------|
*Cuidado con el tiempo en esta parte...


OUTRO
E|----------------------------|
B|-12-13-15-15b17v--15b17r15v-|
G|----------------------------|
D|----------------------------|
A|----------------------------|
E|----------------------------|

E|--*15p14p12*--------------------------------------------|
B|-------------15-----------------------------------------|
G|-----------------14-12-11b12r11-------------------------|
D|---------------------------------12---------------------|
A|------------------------------------12-10-9-10-9---9-10-|
E|-------------------------------------------------10-----|

E|------------------------------------------------------------------------|
B|---------------------------------------------15-15----15-15h17-15-15v---|
G|-------12----14----14-16-16v-12-14-16-16v-14-------14-------------------|
D|-12-12----12----12------------------------------------------------------|
A|------------------------------------------------------------------------|
E|------------------------------------------------------------------------|

E|-20h22-------------------------------------------13/15v-|
B|--------20--22-22b24-22p20-22| V---15b17-15p13-15v--------
G|--------------------------------------------------------|
D|--------------------------------------------------------|
A|--------------------------------------------------------|
E|--------------------------------------------------------|
Compositor no encontrado.
    • ½ Tono
    • A
    • Bb
    • B
    • C
    • Db
    • D
    • Eb
    • E
    • F
    • F#
    • G
    • Ab
  • Agregar a la lista

    0 comentarios

    Ver todos los comentarios
    00:00 / 00:00
    Otros videos de esta canción
    Repetir Calidad Automático
    Otros videos de esta canción
    00:00 / 00:00
    Automático
    OK