Cifra Club

Superheroe

Xtreme Kids

Cifrado: Principal (guitarra y guitarra eléctrica)
tono: E
Outro
E|---------16--17--19v--16b17r16---------------|
B|--16h17-------------------------19b21r19-----|
G|---------------------------------------------|
D|---------------------------------------------|
A|---------------------------------------------|
E|---------------------------------------------|

E|-12-11-9----11-9---------------------------|
B|---------12------12-10-9-12p10p9-----------|
G|---------------------------------11p9p8----|
D|----------------------------------------11-|
A|-------------------------------------------|
E|-------------------------------------------|

E|----------------------------------------|
B|----------------------------------------|
G|9-8-------------------------------------
D|----11-9-7------------------------------|
A|-----------11-9-7----9-7------7---------|
E|------------------11-----11-9---11-9-7v-|

E|--------------------------------------------16-----------------------|
B|-------------------16h17--16v--17--19-----------17--------------17v--|
G|----------13--16v----------------------16v----------16---------------|
D|-------14-----------------------------------------------18-----------|
A|-14h16------------------------------------------------------19-------|
E|---------------------------------------------------------------------|
Compositor no encontrado.
    • ½ Tono
    • A
    • Bb
    • B
    • C
    • Db
    • D
    • Eb
    • E
    • F
    • F#
    • G
    • Ab
  • Agregar a la lista

    0 comentarios

    Ver todos los comentarios
    00:00 / 00:00
    Otros videos de esta canción
    Repetir Calidad Automático
    Otros videos de esta canción
    00:00 / 00:00
    Automático
    OK