Cifra Club

Cerco

Xutos & Pontapés

Tab de bajo: Principal
Riff  1:
E|-------------------------------------------------|
A|-5-5-5-5---------3-3-3-3-5-5-5-5-----------------|
D|---------3-3-3-3-----------------3-3-3-3-5-5-5-5-|
G|-------------------------------------------------|

Riff  2:
E|-------------------------------------------------------------|
A|-3-3-3-3-3-3-3-3-3-3-3-3-3-3-3-3-3-3-3-3-3-3-3-3-3-3-3-3-3-3-|
D|-------------------------------------------------------------|
G|-------------------------------------------------------------|

Riff  3:
E|-------------------------------------------|
A|-5-5-5-5---------3-3-3-3-5-5-5-5-----------|
D|---------3-3-3-3-----------------3-5-3-5-3-|
G|-------------------------------------------|

Riff 4:
E|--------------------------------------|
A|-5-5-5-5-----------5-5-5--------3-3-3-|
D|---------3-3-5-3-5--------3-3-3-------|
G|--------------------------------------|

Riff 5:
E|---------------------------------------------------|
A|-5-5-5-5---------3-3-3-3-5-5-5-5-----------5-5-3-5-|
D|---------3-3-3-3---------------------3-3-3-3-------|
G|---------------------------------------------------|

Riff 1 6x (00:10)
Riff 2 1x (00:52)
Riff 3 2x (01:07)
Riff 2 1x (01:50)
Riff 4 2x (02:04)
Riff 1 4x (02:18)
Riff 3 4x (02:46)
Riff 2 1x (03:15)
Riff 3 3x (03:28)
Riff 5 1x (03:50)
00:00 / 00:00
Otros videos de esta canción
Repetir
Otros videos de esta canción
Composición de Tim
Colaboración y revisión:
  • João
59 vistas

0 comentarios

Ver todos los comentarios

¿Lograste tocar?

0 Tocaron 0 Aún no

¡Graba un video tocando Cerco y envíanoslo!

00:00 / 00:00
OK