Cifra Club

Dia De Sao Receber

Xutos & Pontapés

Tablatura: Principal (guitarra)
Tom: A
Dia de São Receber
Xutos e pontapés
Guitar Tab

  Intro                                Mini solo

 ----------------------------------]----------------------------------------|
 ----------------------------------]----------------------------------------|
 ----------------------------------]----------22----------------------------|
 ---7-5-7--------------------------]----------------------------------------|
 ---7-5-7------2x------------------]----34-5-----3^4-5----------------------|
 ---5-3-5--------------------------]-55-----------------5-5-----------------|

  Versos
 ----------------------------------]---------------------------------------|
 ----------------------------------]---------------------------------------|
 ----------------------------------]---------------------------------------|
 ----------------------------------]---------------------------------------|
 --------------3x-depois-----------]---------------3-2-1-------------------|
 --5-5-3-4-5-5---------------------]---5-5-3-4-5-5-------5-5---------------|


   ai é o dia

 ----------------------------------]---------------------------------------|
 ----------------------------------]---------------------------------------|
 --11bend 9-11bend-9-7----depois---]----mini solo--------------------------|
 ----------------------------------]---------------------------------------|
 ----------------------------------]---------------------------------------|
 ----------------------------------]---------------------------------------|


dia de são receber dia de são receber

 ----------------------------------]---------------------------------------|
 ----------------------------------]---------------------------------------|
 -9--------------------------------]---------------------------------------|
 -9---4x-7----------7-5-7----------]---------------------------------------|
 -7------7----------7-5-7----------]---------------------------------------|
 --------5--4x------5-3-5----------]---------------------------------------|


para alguma sugestão , duvida , contacte para o e mail *
ou visite  Http://*
RIcardo Sousa
reproducciones 114
Acordes para:

    0 comentarios

    mostrar más comentarios

    ¿Conseguiste tocar?

    0 tocaron 0 aún no

    ¡Graba un vídeo tocando Dia De Sao Receber y envianoslo!

    00:00 / 00:00
    outros vídeos desta música
    repetir qualidade Automático
    Outros vídeos desta música
    00:00 / 00:00
    Automático
    OK