Cifra Club

Perfeito Vazio

Xutos & Pontapés

Tablatura: Principal (guitarra)
Tom: E
Intro:
            E
E|--4--7-|--4--7-|--4--7-|--4--7-|
B|--5--7-|--5--7-|--5--7-|--5--7-|
G|-------|-------|-------|-------|
D|-------|-------|-------|-------|
A|-------|-------|-------|-------|
E|-------|-------|-------|-------|

    A
E|--5--7-|--5--7-|--5--7-|--5--7-|
B|--5--7-|--5--7-|--5--7-|--5--7-|
G|-------|-------|-------|-------|
D|-------|-------|-------|-------|
A|-------|-------|-------|-------|
E|-------|-------|-------|-------|

   E
Aqui estou eu
         A
Sou uma folha de papel vazia
    E
Pequenas coisas, pequenos pontos
                       A
Vão-me mostrando o caminho

Refrão / Solo:
                  C#m
Às vezes aqui faz frio
                    B
Às vezes eu fico imóvel
              A
Pairando no vazio
                   E      A
Às vezes aqui faz frio

Sei que me esperas
Não sei se vou lá chegar
Tenho coisas p´ra fazer
Tenho vidas para acompanhar

Refrão / Solo:
                   C#m
Às vezes lá faz mais frio
                    B
Às vezes eu fico imóvel
               A
Pairando no vazio
            B
Perfeito vazio
                    E
Às vezes lá faz mais frio

E
Lá fora faz frio
A
Lá fora faz frio
(Até ao Refráo)

Bem vindos à minha casa
Ao meu lado mais profundo
Onde eu saio por vezes
Para conquistar o mundo

Refrão / Solo:
                     C#m
Às vezes tu tens mais frio
                  B
Às vezes eu fico imóvel
              A
Pairando no vazio
             B
No perfeito vazio
                       A  C
Às vezes lá faz mais frio
                E
No teu peito vazio
Solo:
E|-----------|---------------------------|----------------------|
B|-----------|--12-10-9---------------12-|-12-10-9--------------|
G|-----9h11-9|----------11-9-------------|---------11-9---------|
D|-11~-------|---------------13-11\9~----|--------------13-11-9-|
A|-----------|---------------------------|----------------------|
E|-----------|---------------------------|----------------------|

E|-----------------------|
B|-12-10-9---------------|
G|---------11-9--------9-|
D|--------------13-11----|
A|-----------------------|
E|-----------------------|
reproducciones 69
Acordes para:
    Colaboración y revision:
    • Hugo

    0 comentarios

    mostrar más comentarios

    ¿Conseguiste tocar?

    2 tocaron 0 aún no

    ¡Graba un vídeo tocando Perfeito Vazio y envianoslo!

    00:00 / 00:00
    outros vídeos desta música
    repetir qualidade Automático
    Outros vídeos desta música
    00:00 / 00:00
    Automático
    OK