Cifra Club

Pra Ti Maria

Xutos & Pontapés

Tablatura: Principal (guitarra)
Tom: C
Pra ti maria
tab by Ricardo Sousa


 intro
 --------------------------------------]---------------------------------------|
 --------------------------------------]----------------------------------7----|
 ----------1010-9-7-----1010-9-7-----7-]-----1010-9--7----1010-9--7-----7-7----|
 --101010--1010-9-7-10--1010-9-7-10--7-]-----1010-9--7-10-1010-9--7-10--7-5-10-|
 --101010--8-8--7-5-10--8-8--7-5-10--5-]-----8-8--7--5-10-8-8--7--5-10--5---10-|
 --8-8-8------------8------------8-----]-888-----------8------------8-------8--|
 versos
 ----------------------------------]-------------------------|
 ----------------------------------]----------------7--------|
 --55--55--55----------------------]--55---55-55-7--7--------|
 --55--55--55-5555555---3 x-depois-]--55---55-55-7--5--10----|
 --33--33--33-5555555--------------]--33---33-33-5-----10----|
 -------------3333333--------------]-------------------8-----|

refrao  e saio agora .. .              fim
 -----------------------------------]------------------------|
 -----------------------------------]------------------------|
 -----------------6-----------------]--7-----5---------------|
 -3--5------------6-----------------]--7--5--5---------------|
 -3--5--3x depois 4-----------------]--5--5--3-------3x------|
 -1--3------------------------------]-----3------------------|

nada mais fácil para mais informações, duvidas contacte
* ou visite o nosso site
Http://*
R. Sousa
reproducciones 43
Acordes para:

    0 comentarios

    mostrar más comentarios

    ¿Conseguiste tocar?

    1 tocaron 1 aún no

    ¡Graba un vídeo tocando Pra Ti Maria y envianoslo!

    00:00 / 00:00
    outros vídeos desta música
    repetir qualidade Automático
    Outros vídeos desta música
    00:00 / 00:00
    Automático
    OK