Cifra Club

Quem e Quem

Xutos & Pontapés

Tablatura: Principal (guitarra)
Tom: A#
INTRO Cm Bb Cm D# Bb F Cm D# Bb F

Parte 1/2

E|-----------------------------------------|
B|-----------------------------------------|
G|-----------------------------------------|
D|----5---7b--5~~-----7/8~~---7--8--7--5---|
A|-----------------------------------------|
E|-----------------------------------------|

E|-----------------------------------------|
B|-----------------------------------------|
G|-----------------------------------------|
D|---7b--5--------5--7b--5--7/8--7--5------|
A|-----------8b----------------------------|
E|-----------------------------------------|

E|--------------------------------|
B|--------------------------------|
G|--------------------------------|
D|--------------------------------|
A|--7/8-8/10--------10b--10b------|
E|--------------------------------|

Parte 2/2

E|-----------------------------------------|
B|-----------------------------------------|
G|---12--14b--12---14/15--14--15--14--12---|
D|-----------------------------------------|
A|-----------------------------------------|
E|-----------------------------------------|

E|-----------------------------------------|
B|-----------------------------------------|
G|---14b--12--------------15---------------|
D|-------------15b----17------17-----------|
A|-----------------------------------------|
E|-----------------------------------------|

E|-----------------------------------------|
B|-----------------------------------------|
G|---12--14b--12---14/15---17--15--17------|
D|-----------------------------------------|
A|-----------------------------------------|
E|-----------------------------------------|

G
Pé ante pé na noite fechada
                                    Bb
Para deixar presa a hiena esfomeada 
Gm
Dos olhos escapa um brilho cruel
                                    Bb F
Matar a fome é o seu papel         

G                                      D#
O comboio de chibos avança com o trigo 
Cm         Gm                                   D#
E trazendo armas prontas fixas no seu tejadilho 

Cm      Gm                                      D#
Uma cor de sangue o sol derrama
Cm       Gm
Enquanto Nasce
               D#
Enquanto Nasce o horror
         F                          Gm
Na terra Africana

Gm                        G         Bb
Num fechar e olhos cercam a aldeia
G                                   Bb F
Todos à caça na sua alcateia
                                    F
As gentes fogem ainda estremunhadas
G                                   Bb
Rapidamente são apanhadas

G
Não há quem lhes escape
                                    D#
Não há quem resista
Cm     Gm
São os Senhores da Guerra
                                    D#
Essa raça maldita
C        Gm                         D#
Procuram prazer num jogo mortal
Cm      Gm
Ficamos sem saber
                D#       F
Quem é o homem, quem é o animal

Cm
Quem é quem 
            D#                      Bb
Nesta selva sangrenta
F      C
Quem é quem 
          Bb
Neste dia violento
F      Cm                           D#
Quem é quem 
Bb                             F
Deixando um rasto com um toque de dor
       Cm                           D#
Quem é quem
F   Cm   Bb                    F
Por aqui passaram os filhos do ditador

Gm F# F Gm F Gm F# F Gm F# F Gm F# F Gm F Gm F# F D# Dm

Gm                                  D# E
Uns sem pai de uma mãe esfomeada
Gm                                         F
A lei do mais forte é lhes sempre aplicada
   Gm                                      D#
As malas foram as suas primeiras letras
Cm          Gm                             D#
As facas do mato as suas canetas
C        Gm
Com elas escrevem uma história de terror 
            D#                Cm
Com brasas, cobre e gritos de dor


Gm
Quem é quem

Pergunta a hiena
Cm
Fervendo o sangue
D#             F
A correr nesta arena


G      Cm
Quem é quem 
            D#                       Cm
Nesta selva sangrenta
Bb                    F
E a milícia de sangue sedenta
       Cm
Quem é quem 
          Bb                         F
Neste dia violento
Bb                            F
Mulheres e crianças são o seu movimento
Bb     Cm
Quem é quem 
            Bb                    F
Deixando um rasto com um toque de dor
       Cm
Quem é quem
F        Bb
Por aqui passaram os filhos do ditador

G      Cm     Gm D# Bb F
Quem é quem
G      Cm
Quem é quem
reproducciones 106
Acordes para:
    Composição: Pontapés / Xutos Colaboración y revision:
    • Ricardo Pavão
    • Jorge Umemaru

    0 comentarios

    mostrar más comentarios

    ¿Conseguiste tocar?

    0 tocaron 0 aún no

    ¡Graba un vídeo tocando Quem e Quem y envianoslo!

    00:00 / 00:00
    outros vídeos desta música
    repetir qualidade Automático
    Outros vídeos desta música
    00:00 / 00:00
    Automático
    OK