Cifra Club

Revenge

XXXTENTACION

Tablatura: Principal (guitarra)
Tom: D
E|-----------------|-----------------|-----------------|-----------------|
B|-----3-----3-----|-----3-----3-----|-----5-----5-----|-----2-----2-----|
G|-----4-----4-----|-----4-----4-----|-----6-----6-----|-----3-----3-----|
D|-----4-----4-----|-----5-----5-----|-----7-----7-----|-----4-----4-----|
A|--2-----2-----2--|-----------------|-----------------|-----------------|
E|-----------------|--3-----3-----3--|--5-----5-----5--|--2-----2-----2--|

I think 
I think I finally 
Found a way to forgive my self
From mistakes I made in my past 
I Think that's the first step, right?
You agree?

Bm            G                 A
I've dug two graves for us, my dear 
                         F#                       Bm
Can't pretend that I was perfect leaving you in fear
               G                   A
Oh man, what a world, the things I hear
                     F#
If I could act on my revenge then oh, would I?

Bm                     G               A
Some kill, some steal, some break your heart
                       F#
And you thought that I would let it go and let you walk
      Bm                        G           A
Well, broken hearts break bone, so break up fast
                        F#
And I don't wanna let it go so in my grave, I'll rot

Bm            G                 A
I've dug two graves for us, my dear 
                         F#                       Bm
Can't pretend that I was perfect leaving you in fear
               G                   A
Oh man, what a world, the things I hear
                     F#
If I could act on my revenge then oh, would I?

Bm                     G               A
Some kill, some steal, some break your heart
                       F#
And you thought that I would let it go and let you walk
      Bm                        G           A
Well, broken hearts break bone, so break up fast
                        F#
And I don't wanna let it go so in my grave, I'll rot

( Bm  G  A  F# )
( Bm  G  A  F# )
( Bm  G  A  F# )
( Bm  G  A  F# )

In my grave, I'll rot
In my grave, I'll rot
In my grave, I'll ro-ot
In my grave, I'll rot
In my grave, I'll ro-ro-ot
In my grave, I'll rot
                     
                      In my grave, I'll rot, I'll rot, I'll rot, I'll rot, I'll rot, I'll rot
E|-----------------|-----------------|-----|
B|-----------------|-----------------|-----|
G|-----------------|-----------------|-----|
D|-----------------|-----------------|-----|
A|--2--------------|--2--------------|--2--|
E|-----3--5--5--2--|-----3--5--5--2--|-----|
reproducciones 2.174
Acordes para:
    Composição: XXXTENTACION

    0 comentarios

    mostrar más comentarios

    ¿Conseguiste tocar?

    25 tocaron 10 aún no

    ¡Graba un vídeo tocando Revenge y envianoslo!

    00:00 / 00:00
    outros vídeos desta música
    repetir qualidade Automático
    Outros vídeos desta música
    00:00 / 00:00
    Automático
    OK