Cifra Club

Que Amiga É Essa

Yasmin Santos

Chords: Principal (acoustic and electric guitars)
tone: Bm
[Intro] G  A9

[Tab - Solo]

E|-------------------------------|
B|----8/10--8--7--5--7\----------|
G|------------------------4~-----|
D|-------------------------------|
A|-------------------------------|
E|-------------------------------|

E|-------------------------------|
B|----8/10--8--7--5--7\----------|
G|------------------------2~-----|
D|-------------------------------|
A|-------------------------------|
E|-------------------------------|

[Primeira Parte]

[Tab - Riff]

E|----------5--------------------|
B|--------5---7-5h7--5/7~--------|
G|----6-7------------------------|
D|-------------------------------|
A|-------------------------------|
E|-------------------------------|

           G               A9  Riff
Fica tranquila, é só uma amiga
F#m               Bm
Era isso que você sempre me dizia

[Pré-Refrão]

G    A9    Bm     D9  G
Bem que eu já desconfiava
A9                F#m
Toda foto que ela postava
                Bm
Você curtia e comentava
                       G
Pra pôr um fim nesse episódio
A9                                Bm
Tive que ver com os meus próprios olhos

[Refrão]

      G
Amiga ama mas não beija na boca
        A9
Amiga abraça mas nunca sem roupa
      F#m
Toda noite na casa dela
        Bm
Mas que porra de amiga é essa?

      G
Amiga ama mas não beija na boca
        A9
Amiga abraça mas nunca sem roupa
      F#m
Toda noite na casa dela
        Bm
Mas que porra de amiga é essa?

( G  A9  F#m  Bm )

[Pré-Refrão]

                     G
Bem que eu já desconfiava
A9                F#m
Toda foto que ela postava
                Bm
Você curtia e comentava
           A9          G
Pra pôr um fim nesse episódio
A9                                Bm
Tive que ver com os meus próprios olhos

[Refrão]

      G
Amiga ama mas não beija na boca
        A9
Amiga abraça mas nunca sem roupa
      F#m
Toda noite na casa dela
        Bm
Mas que porra de amiga é essa?

      G
Amiga ama mas não beija na boca
        A9
Amiga abraça mas nunca sem roupa
      F#m
Toda noite na casa dela
        Bm
Mas que porra de amiga é essa?

( G  A9 )

      F#m
Toda noite na casa dela
        Bm
Mas que porra de amiga é essa?

[Final] G  A9  Bm 

[Tab - Solo]

E|-------------------------------|
B|----8/10--8--7--5--7\----------|
G|------------------------4~-----|
D|-------------------------------|
A|-------------------------------|
E|-------------------------------|

E|-------------------------------|
B|----8/10--8--7--5--7\----------|
G|------------------------2~-----|
D|-------------------------------|
A|-------------------------------|
E|-------------------------------|

E|-------------------------------|
B|----4h6-6~---------------------|
G|-------------------------------|
D|-------------------------------|
A|-------------------------------|
E|-------------------------------|
00:00 / 00:00
Other videos of this song
Repeat
Other videos of this song
Composed by Greg Neto / Henrique Alves / Renne Fernandes / Thales Melo
Collaboration and Review:
  • Jonathanfeitosa
34 views
    • ½ Tone
    • Am
    • Bbm
    • Bm
    • Cm
    • C#m
    • Dm
    • Ebm
    • Em
    • Fm
    • F#m
    • Gm
    • G#m
  • Add to list
    00:00 / 00:00
    OK