Cifra Club

Aprenda

Afraid

Yellowcard

Tablatura: Principal (guitarra)
tono: E
Gtr I (E A D G B E) - 'Ryan Mendez I'
Gtr II (E A D G B E) - 'Ryan Key I'
Gtr III (E A D G B E) - 'Ryan Mendez II'
Gtr IV (E A D G B E) - 'Ryan Key II'
Gtr V (E A D G B E) - 'Sean Mackin'
Gtr VI (E A D G B E) - 'Ryan Key III'

Afraid - YELLOWCARD   


Intro + Verse 


   Gtr I
||-----------------|-----------------|----------------|------------------||
||o----------------|-----------------|----------------|-----------------o||
||-----------------|-----------------|----------------|------------------||
||----7-6-4-6-4--4-|---4---4---6---6-|---7-6-4-6-4--4-|---4---4----------||
||o-7-7-7-7-7-7--7-|---7---7---7---7-|-7-7-7-7-7-7--7-|---7---7---7---7-o||
||--0-0-0-0-0-0--0-|-0-0-0-0-0-0-0-0-|-0-0-0-0-0-0--0-|-0-0-0-0-0-0-0-0--||


|----------------|-----------------|----------------|-----------------|
|----------------|-----------------|----------------|-----------------|
|----------------|-----------------|----------------|-----------------|
|---7-6-4-6-4--4-|---4---4---6---6-|---7-6-4-6-4--4-|---4---4---------|
|-4-4-4-4-4-4--4-|---4---4---4---4-|-0-0-0-0-0-0--0-|---0---0---7---7-|
|-0-0-0-0-0-0--0-|-0-0-0-0-0-0-0-0-|-0-0-0-0-0-0--0-|-0-0-0-0-0-0-0-0-|

|-------------------------|-------------------------|
|-------------------------|-------------------------|
|-------------------------|-------------------------|
|-----7--6--4--6--4-----4-|-----4-----4-----6-----6-|
|--7--7--7--7--7--7-----7-|-----7-----7-----7-----7-|
|--0--0--0--0--0--0-----0-|--0--0--0--0--0--0--0--0-|
|
| Gtr II
|-12-12-12-12-12-12-12-12-|-12-12-12-12-12-12-12-12-|
|-------------------------|-------------------------|
|--9--9--9--9--9--9--9--9-|--9--9--9--9--9--9--9--9-|
|-------------------------|-------------------------|
|-------------------------|-------------------------|
|-------------------------|-------------------------|

|-------------------------|-------------------------|
|-------------------------|-------------------------|
|-------------------------|-------------------------|
|-----7--6--4--6--4-----4-|-----4-----4-------------|
|--7--7--7--7--7--7-----7-|-----7-----7-----7-----7-|
|--0--0--0--0--0--0-----0-|--0--0--0--0--0--0--0--0-|
|
|-12-12-12-12-12-12-12-12-|-12-12-12-12-12-12-12-12-|
|-------------------------|-------------------------|
|--9--9--9--9--9--9--9--9-|--9--9--9--9--9--9--9--9-|
|-------------------------|-------------------------|
|-------------------------|-------------------------|
|-------------------------|-------------------------|

|-------------------------|-------------------------|
|-------------------------|-------------------------|
|-------------------------|-------------------------|
|-----7--6--4--6--4-----4-|-----4-----4-----6-----6-|
|--4--4--4--4--4--4-----4-|-----4-----4-----4-----4-|
|--0--0--0--0--0--0-----0-|--0--0--0--0--0--0--0--0-|
|
|-12-12-12-12-12-12-12-12-|-12-12-12-12-12-12-12-12-|
|-------------------------|-------------------------|
|--9--9--9--9--9--9--9--9-|--9--9--9--9--9--9--9--9-|
|-------------------------|-------------------------|
|-------------------------|-------------------------|
|-------------------------|-------------------------|

|-------------------------|-------------------------|
|-------------------------|-------------------------|
|-------------------------|-------------------------|
|-----7--6--4--6--4-----4-|-----4-----4-------------|
|--0--0--0--0--0--0-----0-|-----0-----0-----7-----7-|
|--0--0--0--0--0--0-----0-|--0--0--0--0--0--0--0--0-|
|
|                            <
|-12-12-12-12-12-12-12-12-|-12-12-12-12-12-12-12-12-|
|-------------------------|-------------------------|
|--9--9--9--9--9--9--9--9-|--9--9--9--9--9--9--9--9-|
|-------------------------|-------------------------|
|-------------------------|-------------------------|
|-------------------------|-------------------------|


   Pre-Chorus
    Gtr III
||--------------------------|-------------------------|
||o-------------------------|-------------------------|
||--13-13-13-13-13-13-13-13-|-13-13-13-13-13-13-13-13-|
||--------------------------|-------------------------|
||o-11-11-11-11-11-11-11-11-|-11-11-11-11-11-11-11-11-|
||--------------------------|-------------------------|
|
|   Gtr IV
||--------------------------|-------------------------|
||o-------------------------|-------------------------|
||--------------------------|-------------------------|
||---7--7--7--7--7--7--7--7-|--9--9--9--9--9--9--9--9-|
||o--7--7--7--7--7--7--7--7-|--9--9--9--9--9--9--9--9-|
||---5--5--5--5--5--5--5--5-|--7--7--7--7--7--7--7--7-|
|
|   Gtr V
||--16-12----12----16-17-19-|-16-12----12----16-12-14-|
||o-------12----12----------|-------12----12----------|
||--------------------------|-------------------------|
||--------------------------|-------------------------|
||o-------------------------|-------------------------|
||--------------------------|-------------------------|


|-------------------------|-----------------------||
|-------------------------|----------------------o||
|-11-11-11-11-11-11-11-11-|--8-8--8-8--9-9--9-9---||
|-------------------------|-----------------------||
|--9--9--9--9--9--9--9--9-|--6-6--6-6--7-7--7-7--o||
|-------------------------|-----------------------||
|
|-------------------------|-----------------------||
|-------------------------|----------------------o||
|-------------------------|-----------------------||
|-11-11-11-11-11-11-11-11-|--9-9--9-9--9-9--9-9---||
|-11-11-11-11-11-11-11-11-|--9-9--9-9--9-9--9-9--o||
|--9--9--9--9--9--9--9--9-|--7-7--7-7--7-7--7-7---||
|
|-16-12----12----16-17-19-|-19---17---16---14-----||
|-------12----12----------|----------------------o||
|-------------------------|-----------------------||
|-------------------------|-----------------------||
|-------------------------|----------------------o||
|-------------------------|-----------------------||


   Chorus
    $
    $$
||--------------------------|-------------------------|
||o-------------------------|-------------------------|
||---9--9--9--9--9--9--9--9-|--9--9--9--9--9--9--9--9-|
||--------------------------|-------------------------|
||o--7--7--7--7--7--7--7--7-|--7--7--7--7--7--7--7--7-|
||--------------------------|-------------------------|
|
||--------------------------|-------------------------|
||o-------------------------|-------------------------|
||--------------------------|-------------------------|
||---2--2--2--2--2--2--2--2-|--2--2--2--2--2--2--2--2-|
||o--2--2--2--2--2--2--2--2-|--2--2--2--2--2--2--2--2-|
||---0--0--0--0--0--0--0--0-|--0--0--0--0--0--0--0--0-|
|
||--16-12-16-17-16-12-16-12-|-16-12-16-17-16-12-16-12-|
||o-------------------------|-------------------------|
||--------------------------|-------------------------|
||--------------------------|-------------------------|
||o-------------------------|-------------------------|
||--------------------------|-------------------------|


|-------------------------|--------------------------|
|-------------------------|--------------------------|
|--8--8--8--8--8--8--8--8-|--8--8--8--8--8--8--8--8--|
|-------------------------|--------------------------|
|--6--6--6--6--6--6--6--6-|--6--6--6--6--6--6--6--6--|
|-------------------------|--------------------------|
|
|-------------------------|--------------------------|
|-------------------------|--------------------------|
|--4--4--4--4--4--4--4--4-|--4--4--4--4--4--4--4--4--|
|--4--4--4--4--4--4--4--4-|--4--4--4--4--4--4--4--4--|
|--2--2--2--2--2--2--2--2-|--2--2--2--2--2--2--2--2--|
|-------------------------|--------------------------|
|
|-16-12-16-17-16-12-16-12-|-16-12-16-17-16-12-16-12--|
|-------------------------|--------------------------|
|-------------------------|--------------------------|
|-------------------------|--------------------------|
|-------------------------|--------------------------|
|-------------------------|--------------------------|

|-------------------------|-------------------------|
|-------------------------|-------------------------|
|--9--9--9--9--9--9--9--9-|--9--9--9--9--9--9--9--9-|
|-------------------------|-------------------------|
|--7--7--7--7--7--7--7--7-|--7--7--7--7--7--7--7--7-|
|-------------------------|-------------------------|
|
|-------------------------|-------------------------|
|-------------------------|-------------------------|
|-------------------------|-------------------------|
|--4--4--4--4--4--4--4--4-|--4--4--4--4--4--4--4--4-|
|--4--4--4--4--4--4--4--4-|--4--4--4--4--4--4--4--4-|
|--2--2--2--2--2--2--2--2-|--2--2--2--2--2--2--2--2-|
|
|-16-12-16-17-16-12-16-12-|-16-12-16-17-16-12-16-12-|
|-------------------------|-------------------------|
|-------------------------|-------------------------|
|-------------------------|-------------------------|
|-------------------------|-------------------------|
|-------------------------|-------------------------|


                                          To Coda
                                          To Coda
|-------------------------|--------------------------||
|-------------------------|-------------------------o||
|-13-13-13-13-13-13-13-13-|-13-13-13-13-13-13-13-13--||
|-------------------------|--------------------------||
|-11-11-11-11-11-11-11-11-|-11-11-11-11-11-11-11-11-o||
|-------------------------|--------------------------||
|
|-------------------------|--------------------------||
|-------------------------|-------------------------o||
|--2--2--2--2--2--2--2--2-|--2--2--2--2--2--2--2--2--||
|--2--2--2--2--2--2--2--2-|--2--2--2--2--2--2--2--2--||
|--0--0--0--0--0--0--0--0-|--0--0--0--0--0--0--0--0-o||
|-------------------------|--------------------------||
|
|-19-12-12-12-19-12-12-12-|-19-12-12-12-19-17-16-17--||
|-------------------------|-------------------------o||
|-------------------------|--------------------------||
|-------------------------|--------------------------||
|-------------------------|-------------------------o||
|-------------------------|--------------------------||


 Interlude
|----------------------|-----------------------|
|----------------------|-----------------------|
|---14-13-11-13-11--11-|-(11)-11--11--13-13-13-|
|----------------------|-----------------------|
|---12-11--9-11--9---9-|--(9)--9---9--11-11-11-|
|-0--------------------|-----------------------|
|
| PM--------------------------------------------
|----------------------|-----------------------|
|----------------------|-----------------------|
|----------------------|-----------------------|
|----------------------|-----------------------|
|----2--2--2--2--2---2-|--(2)--2---2---2--2--2-|
|-0--0--0--0--0--0---0-|--(0)--0---0---0--0--0-|

|----------------------|--------------------|
|----------------------|--------------------|
|---14-13-11-13-11--11-|-(11)-11--11--9-9-9-|
|----------------------|--------------------|
|---12-11--9-11--9---9-|--(9)--9---9--7-7-7-|
|-0--------------------|--------------------|
|
|-----------------------------------------|
|----------------------|--------------------|
|----------------------|--------------------|
|----------------------|--------------------|
|----------------------|--------------------|
|----2--2--2--2--2---2-|--(2)--2---2--2-2-2-|
|-0--0--0--0--0--0---0-|--(0)--0---0--0-0-0-|


 Verse
|-------------------------|-------------------------|
|-------------------------|-------------------------|
|-13-13-13-13-13-13-13-13-|-13-13-13-13-13-13-13-13-|
|-------------------------|-------------------------|
|-11-11-11-11-11-11-11-11-|-11-11-11-11-11-11-11-11-|
|-------------------------|-------------------------|
|
|-------------------------|-------------------------|
|-------------------------|-------------------------|
|-------------------------|-------------------------|
|--9--9--9--9--9--9--9--9-|--9--9--9--9--9--9--9--9-|
|--7--7--7--7--7--7--7--7-|--7--7--7--7--7--7--7--7-|
|-------------------------|-------------------------|

|-------------------------|-------------------------|
|-------------------------|-------------------------|
|-11-11-11-11-11-11-11-11-|-11-11-11-11-11-11-11-11-|
|-------------------------|-------------------------|
|--9--9--9--9--9--9--9--9-|--9--9--9--9--9--9--9--9-|
|-------------------------|-------------------------|
|
|-------------------------|-------------------------|
|-------------------------|-------------------------|
|-------------------------|-------------------------|
|--9--9--9--9--9--9--9--9-|--9--9--9--9--9--9--9--9-|
|--7--7--7--7--7--7--7--7-|--7--7--7--7--7--7--7--7-|
|-------------------------|-------------------------|

|-----------------|-----------------|-----------------|-----------------|
|-----------------|-----------------|-----------------|-----------------|
|-9-9-9-9-9-9-9-9-|-9-9-9-9-9-9-9-9-|-9-9-9-9-9-9-9-9-|-9-9-9-9-9-9-9-9-|
|-----------------|-----------------|-----------------|-----------------|
|-7-7-7-7-7-7-7-7-|-7-7-7-7-7-7-7-7-|-7-7-7-7-7-7-7-7-|-7-7-7-7-7-7-7-7-|
|-----------------|-----------------|-----------------|-----------------|
|
|-----------------|-----------------|-----------------|-----------------|
|-----------------|-----------------|-----------------|-----------------|
|-----------------|-----------------|-----------------|-----------------|
|-6-6-6-6-6-6-6-6-|-6-6-6-6-6-6-6-6-|-2-2-2-2-2-2-2-2-|-2-2-2-2-2-2-2-2-|
|-4-4-4-4-4-4-4-4-|-4-4-4-4-4-4-4-4-|-0-0-0-0-0-0-0-0-|-0-0-0-0-0-0-0-0-|
|-----------------|-----------------|-----------------|-----------------|

|-------------------------|-------------------------|
|-------------------------|-------------------------|
|-13-13-13-13-13-13-13-13-|-13-13-13-13-13-13-13-13-|
|-------------------------|-------------------------|
|-11-11-11-11-11-11-11-11-|-11-11-11-11-11-11-11-11-|
|-------------------------|-------------------------|
|
|-------------------------|-------------------------|
|-------------------------|-------------------------|
|-------------------------|-------------------------|
|--9--9--9--9--9--9--9--9-|--9--9--9--9--9--9--9--9-|
|--7--7--7--7--7--7--7--7-|--7--7--7--7--7--7--7--7-|
|-------------------------|-------------------------|

|-----------------|-----------------|
|-----------------|-----------------|
|-9-9-9-9-9-9-9-9-|-9-9-9-9-9-9-9-9-|
|-----------------|-----------------|
|-7-7-7-7-7-7-7-7-|-7-7-7-7-7-7-7-7-|
|-----------------|-----------------|
|
|-----------------|-----------------|
|-----------------|-----------------|
|-----------------|-----------------|
|-9-9-9-9-9-9-9-9-|-9-9-9-9-9-9-9-9-|
|-7-7-7-7-7-7-7-7-|-7-7-7-7-7-7-7-7-|
|-----------------|-----------------|

|-----------------|-----------------|
|-----------------|-----------------|
|-9-9-9-9-9-9-9-9-|-9-9-9-9-9-9-9-9-|
|-----------------|-----------------|
|-7-7-7-7-7-7-7-7-|-7-7-7-7-7-7-7-7-|
|-----------------|-----------------|
|
|-----------------|-----------------|
|-----------------|-----------------|
|-----------------|-----------------|
|-6-6-6-6-6-6-6-6-|-6-6-6-6-6-6-6-6-|
|-4-4-4-4-4-4-4-4-|-4-4-4-4-4-4-4-4-|
|-----------------|-----------------|

|-------------------------|-------------------------|
|-------------------------|-------------------------|
|-11-11-11-11-11-11-11-11-|-11-11-11-11-11-11-11-11-|
|-------------------------|-------------------------|
|--9--9--9--9--9--9--9--9-|--9--9--9--9--9--9--9--9-|
|-------------------------|-------------------------|
|
|-------------------------|-------------------------|
|-------------------------|-------------------------|
|-------------------------|-------------------------|
|--2--2--2--2--2--2--2--2-|--2--2--2--2--2--2--2--2-|
|--0--0--0--0--0--0--0--0-|--0--0--0--0--0--0--0--0-|
|-------------------------|-------------------------|


 Pre-Chorus
|-------------------------|-------------------------|
|-------------------------|-------------------------|
|-13-13-13-13-13-13-13-13-|-13-13-13-13-13-13-13-13-|
|-------------------------|-------------------------|
|-11-11-11-11-11-11-11-11-|-11-11-11-11-11-11-11-11-|
|-------------------------|-------------------------|
|
|-------------------------|-------------------------|
|-------------------------|-------------------------|
|-------------------------|-------------------------|
|--7--7--7--7--7--7--7--7-|--9--9--9--9--9--9--9--9-|
|--7--7--7--7--7--7--7--7-|--9--9--9--9--9--9--9--9-|
|--5--5--5--5--5--5--5--5-|--7--7--7--7--7--7--7--7-|
|
| Gtr V
|-16-12----12----16-17-19-|-16-12----12----16-12-14-|
|-------12----12----------|-------12----12----------|
|-------------------------|-------------------------|
|-------------------------|-------------------------|
|-------------------------|-------------------------|
|-------------------------|-------------------------|

|-------------------------|---------------------|
|-------------------------|---------------------|
|-11-11-11-11-11-11-11-11-|--8--8-8--8-9--9-9-9-|
|-------------------------|---------------------|
|--9--9--9--9--9--9--9--9-|--6--6-6--6-7--7-7-7-|
|-------------------------|---------------------|
|
|-------------------------|---------------------|
|-------------------------|---------------------|
|-------------------------|---------------------|
|-11-11-11-11-11-11-11-11-|--9--9-9--9-9--9-9-9-|
|-11-11-11-11-11-11-11-11-|--9--9-9--9-9--9-9-9-|
|--9--9--9--9--9--9--9--9-|--7--7-7--7-7--7-7-7-|
|
|-16-12----12----16-17-19-|-19-17---16---14-----|
|-------12----12----------|---------------------|
|-------------------------|---------------------|
|-------------------------|---------------------|
|-------------------------|---------------------|
|-------------------------|---------------------|

|-------------------------|-------------------------|
|-------------------------|-------------------------|
|-13-13-13-13-13-13-13-14-|-11-11-11-11-11-11-11-11-|
|-------------------------|-------------------------|
|-11-11-11-11-11-11-11-12-|--9--9--9--9--9--9--9--9-|
|-------------------------|-------------------------|
|
|-------------------------|-------------------------|
|-------------------------|-------------------------|
|-------------------------|-------------------------|
|--7--7--7--7--7--7--7--7-|--9--9--9--9--9--9--9--9-|
|--7--7--7--7--7--7--7--7-|--9--9--9--9--9--9--9--9-|
|--5--5--5--5--5--5--5--5-|--7--7--7--7--7--7--7--7-|
|
|-16-12----12----16-17-19-|-16-12----12----16-12-14-|
|-------12----12----------|-------12----12----------|
|-------------------------|-------------------------|
|-------------------------|-------------------------|
|-------------------------|-------------------------|
|-------------------------|-------------------------|


                                          D.S.
|-------------------------|---------------------|
|-------------------------|---------------------|
|-11-11-11-11-11-11-11-11-|--8--8-8--8-9--9-9-9-|
|-------------------------|---------------------|
|--9--9--9--9--9--9--9--9-|--6--6-6--6-7--7-7-7-|
|-------------------------|---------------------|
|
|-------------------------|---------------------|
|-------------------------|---------------------|
|-------------------------|---------------------|
|-11-11-11-11-11-11-11-11-|--9--9-9--9-9--9-9-9-|
|-11-11-11-11-11-11-11-11-|--9--9-9--9-9--9-9-9-|
|--9--9--9--9--9--9--9--9-|--7--7-7--7-7--7-7-7-|
|
|-16-12----12----16-17-19-|-19-17---16---14-----|
|-------12----12----------|---------------------|
|-------------------------|---------------------|
|-------------------------|---------------------|
|-------------------------|---------------------|
|-------------------------|---------------------|


   Breakdown
    &
||--------------------------|-------------------------|
||o-------------------------|-------------------------|
||--13-13-13-13-13-13-13-13-|-13-13-13-13-13-13-13-13S|
||--------------------------|-------------------------|
||o-11-11-11-11-11-11-11-11-|-11-11-11-11-11-11-11-11S|
||--------------------------|-------------------------|
|
||--------------------------|-------------------------|
||o-------------------------|-------------------------|
||--------------------------|-------------------------|
||---6--6--6--6--6--6--6--6-|--9--9--9--9--9--9--9--9-|
||o--4--4--4--4--4--4--4--4-|--7--7--7--7--7--7--7--7-|
||--------------------------|-------------------------|


                                                      4x
|-------------------------|---------------------------||
|-------------------------|--------------------------o||
|-16-16-16-14-14-14-13-13-|-11-11-11-11-11-11-11-11---||
|-------------------------|---------------------------||
|-14-14-14-12-12-12-11-11-|--9--9--9--9--9--9--9--9--o||
|-------------------------|---------------------------||
|
|                                                     4x
|-------------------------|---------------------------||
|-------------------------|--------------------------o||
|-------------------------|---------------------------||
|-------------------------|---------------------------||
|--9--9--9--9--9--9--9--9-|--4--4--4--4--4--4--4--4--o||
|--7--7--7--7--7--7--7--7-|--2--2--2--2--2--2--2--2---||


 Bridge
|------------------|--------------------|-----------------|-------------------|
|------------------|--------------------|-----------------|-------------------|
|-9---9-11-9---9---|--9----9-11-9---9---|-7---7-9-7---7---|--7----7-9-7---7---|
|---9--------9---9-|-----9--------9---9-|---9-------9---9-|-----9-------9---9-|
|------------------|--------------------|-----------------|-------------------|
|------------------|--------------------|-----------------|-------------------|
|
| Gtr VI
|------------------|--------------------|-2---2-----2---2-|-----2-------2-2-2-|
|------------------|--------------------|-3---3-----3-3-3-|-----3-3---3-3-3-3-|
|-9---9------9-9-9-|-(9)-9-9----9-9-9-9-|-4---4-----4-4-4-|-(4)-4-4---4-4-4-4-|
|-9---9------9-9-9-|-(9)-9-9----9-9-9-9-|-4---------4-4-4-|-(4)-4-4---4-4-4-4-|
|-7---7------7-7-7-|-(7)-7-7----7-7-7-7-|-2---------2-2-2-|-(2)-2-2---2-2-2-2-|
|------------------|--------------------|-----------------|-------------------|

|-----------------|-------------------|------------------|--------------------|
|-----------------|-------------------|------------------|--------------------|
|-6---6-7-6---6---|--6----6-7-6---6---|-9---9-11-9---9---|--9----9-11-9---9---|
|---7-------7---7-|-----7-------7---7-|---9--------9---9-|-----9--------9---9-|
|-----------------|-------------------|------------------|--------------------|
|-----------------|-------------------|------------------|--------------------|
|
|-0---0-----0---0-|-----0-------0-0-0-|------------------|--------------------|
|-2---2-----2-2-2-|-----2-2---2-2-2-2-|------------------|--------------------|
|-2---2-----2-2-2-|-(2)-2-2---2-2-2-2-|-9---9------9-9-9-|-(9)-9-9----9-9-9-9-|
|-2---------2-2-2-|-(2)-2-2---2-2-2-2-|-9---9------9-9-9-|-(9)-9-9----9-9-9-9-|
|-0---------0-0-0-|-(0)-0-0---0-0-0-0-|-7---7------7-7-7-|-(7)-7-7----7-7-7-7-|
|-----------------|-------------------|------------------|--------------------|


                                      D.S.S.
|-------------------|--------------------------|
|-------------------|--------------------------|
|--9---9-11-9---9---|--9------9-11--9-----9----|
|----9--------9---9-|------9-----------9-----9-|
|-------------------|--------------------------|
|-------------------|--------------------------|
|
|-------------------|--------------------------|
|-------------------|--------------------------|
|--9---9------9-9-9-|-(9)--9--9-----9--9--9--9-|
|--9---9------9-9-9-|-(9)--9--9-----9--9--9--9-|
|--7---7------7-7-7-|-(7)--7--7-----7--7--7--7-|
|-------------------|--------------------------|
|
|                      <
|-12----------------|-12--12-12-12-12-12-12-12-|
|-------------------|--------------------------|
|--9----------------|--9---9--9--9--9--9--9--9-|
|-------------------|--------------------------|
|-------------------|--------------------------|
|-------------------|--------------------------|


   Final
    &&
||-----------------------|-----------------------|
||o----------------------|-----------------------|
||----14-13-11-13-11--11-|-(11)-11--11--13-13-13-|
||-----------------------|-----------------------|
||o---12-11--9-11--9---9-|--(9)--9---9--11-11-11-|
||--0--------------------|-----------------------|
|
|     Gtr IV
|   PM--------------------------------------------
||-----------------------|-----------------------|
||o----------------------|-----------------------|
||-----------------------|-----------------------|
||-----------------------|-----------------------|
||o----2--2--2--2--2---2-|--(2)--2---2---2--2--2-|
||--0--0--0--0--0--0---0-|--(0)--0---0---0--0--0-|


|----------------------|----------------------||
|----------------------|---------------------o||
|---14-13-11-13-11--11-|-(11)-11--11--9-9-9---||
|----------------------|----------------------||
|---12-11--9-11--9---9-|--(9)--9---9--7-7-7--o||
|-0--------------------|----------------------||
|
|-----------------------------------------|
|----------------------|----------------------||
|----------------------|---------------------o||
|----------------------|----------------------||
|----------------------|----------------------||
|----2--2--2--2--2---2-|--(2)--2---2--2-2-2--o||
|-0--0--0--0--0--0---0-|--(0)--0---0--0-0-0---||
Colaboración y revision:
  • tiago rotava
37 reproducciones
    • ½ Tono
    • A
    • Bb
    • B
    • C
    • Db
    • D
    • Eb
    • E
    • F
    • F#
    • G
    • Ab
  • Adicionar à lista

    0 comentarios

    Ver todos os comentários
    00:00 / 00:00
    outros vídeos desta música
    repetir qualidade Automático
    Outros vídeos desta música
    00:00 / 00:00
    Automático
    OK