Cifra Club

Aprenda

Avondale

Yellowcard

Tab de bajo: Versão 2
Intro
|-----|   
|-----|    
|-----|    
|-333-| x1

|---------------------------------|
|---------------------------------|
|-2222222222222222----------------|
|-----------------333333333333-3-0| x3

|-----------------------------------|
|-----------------------------------|
|--2222222222222222-----------------|
|------------------333333333333-000-| x1


verse (bass only)
                                        
|----------------------------------|
|----------------------------------|
|-22222222--------55555555---------|
|---------33333333--------55555555-|x2

"that scar"
|-----|
|-----|
|-----|
|-5-4~| x1

|---------------------------------|
|---------------------------------|
|-55555555--------22222222--------|
|---------55555555--------33333333| x3 

|---------------|
|---------------|
|-55555555------|
|---------5-4~-| 

|-------------------|
|-------------------|
|-555555------2~~---|
|-------555555------|

chorus
|------------------------------------------------|
|------------------------------------------------|
|-5555—5555--------------------------------------|
|-----------3333—3333—5555—5555—333-222-55555555-|

|------------------------------------------------|
|------------------------------------------------|
|-5555—5555--------------------------------------|
|-----------3333—3333—5555—5555—333-222-5555-333-| x1

 




verse again
|-------------------------------------------------------------------|
|-------------------------------------------------------------------|
|55555555--------22222222---------55555555--------22222222--------2~|
|--------55555555--------33333333---------55555555--------33333333--|

Chorus

|------------------------------------------------|
|------------------------------------------------|
|-5555—5555--------------------------------------|
|-----------3333—3333—5555—5555—333-222-55555555-|

|------------------------------------------------|
|------------------------------------------------|
|-5555—5555--------------------------------------|
|-----------3333—3333—5555—5555—333-222-5555-333-| x1

no bass till 3:06

|-------------------------------------------------------------------|
|-------------------------------------------------------------------|
|5555555555555555---------------------------------------------------|
|----------------3333333333333333-55555555555555555-333333333333333-|

Outro

|-----|
|-----|
|-----|
|-5-4~|

|---------------------------------|
|---------------------------------|
|-2222222222222222----------------|
|-----------------333333333333-3-0|

|-----------------------------------|
|-----------------------------------|
|--2222222222222222-----------------|
|------------------333333333333-000-|
Composição de Yellowcard

0 comentarios

Ver todos os comentários

¿Conseguiste tocar?

0 Tocaram 0 Ainda não

Grave um vídeo tocando Avondale e nos envie!

00:00 / 00:00
outros vídeos desta música
repetir qualidade Automático
Outros vídeos desta música
00:00 / 00:00
Automático
OK